H20
Thicker Than Water (Bass tab)

intro
G:----------------------------------------------
D:----------------------------------------------
A:-5>-7-8>-8-7-5-3>------5>-7-8>-8-7-5-3>-0-3>--
E:------------------5-3>------------------------

verse
G:-----------------| |-----------------
D:-----------------| |-----------------
A:-3>-5>-8-8-8-7-5-| X 3 |-3>-5>-----------
E:-----------------| |-------5-\12-/5--

chorus
G:----------------------------------------------
D:----------------------------------------------
A:-5>-7-8>-8-7-5-3>------5>-7-8>-8-7-5-3>-0-3>--
E:------------------5-3>------------------------

verse
chorus

verse 2
G:-------------------------------| |-----------
D:-----------------------5-8-7-5-| |-----------
A:-------5-8-7-7-5-3-5-5---------| X 3 |----8-7-5--
E:-3-5-5-------------------------| |-3>--------

outro
G:-----5-7-5-------| |--------------
D:---5-------5-----| |--------------
A:-3-----------5-8-| X 4 |-3>-5>-8-7-5-- 'til the end
E:-----------------| |--------------

Copyrights
Author: ?
Composer: ?
Publisher: ?

Reactions

CommonCrawl [Bot]

Follow Muzikum