H20
Friend (Bass tab)

The bass is really buried and it plays some different stuff during the guitar
solo but this will get you through it.

Play this part 3 times:
G-------------------------------------------------------|
D-------------------------------------------------------|
A--3--3--3-3-3------------------------------------------|
E--------------3--3--3-3-3--5--5--5-3-1-1-1-1-1-1-1-1---|


Then:
G---------------------------------------------------|
D---------------------------------------------------|
A---3--3--3-3-3-------------------------------------|
E----------------3--3--3-3-3--1--1--1-1-1--0--------|

Copyrights
Author: ?
Composer: ?
Publisher: ?
More details
Language: English

Reactions

CommonCrawl [Bot]

Follow Muzikum