H20
I See It In Us (Guitar tab)

-------------------------------------------------------------------------------
I SEE IT IN US - H2O
-------------------------------------------------------------------------------

by:Keith Grigas

Intro
e|----------------------------------------------------|
B|----------------------------------------------------|
G|---------------------------------------4-4-4--------|
D|---------------------------------2-2-2-4-4-4-4-4-4--|
A|--44-44-44-44-44-44-44-44-44-44--2-2-2-2-2-2-4-4-4--|
E|--22-22-22-22-22-22-22-22-22-22--0-0-0-------2-2-2--|

Chorus
e|------------------------------------------|
B|------------------------------------------|
G|-----------------------------4-4-4--------|
D|--4--------------------2-2-2-4-4-4-4-4-4--|
A|--4--------------------2-2-2-2-2-2-4-4-4--|
E|--2..................--0-0-0-------2-2-2--|

Verse 8x 2x
e|-----------------|-----------------------------|
B|-----------------|-----------------------------|
G|---------444444--|--999/--999/--999/--4-4-4-4--|
D|--44/7/4-444444--|--999/4-999/4-999/4-4-4-4-4--|
A|--44/7/4-222222--|--777/4-777/4-777/4-2-2-2-2--|
E|--22/5/2---------|------2-----2-----2----------|

Chorus
e|------------------------------------------|
B|------------------------------------------|
G|-----------------------------4-4-4--------|
D|--4--------------------2-2-2-4-4-4-4-4-4--|
A|--4--------------------2-2-2-2-2-2-4-4-4--|
E|--2..................--0-0-0-------2-2-2--|

Verse 8x 2x
e|-----------------|-----------------------------|
B|-----------------|-----------------------------|
G|---------444444--|--999/--999/--999/--4-4-4-4--|
D|--44/7/4-444444--|--999/4-999/4-999/4-4-4-4-4--|
A|--44/7/4-222222--|--777/4-777/4-777/4-2-2-2-2--|
E|--22/5/2---------|------2-----2-----2----------|

Breakdown 8x
e|-------------------|-------------------------------|
B|-------------------|-------------------------------|
G|--5-5-5-5----------|--999/---999/---999/--4-4-4-4--|
D|--5-5-5-5-4-4-4-4--|--999/4--999/4--999/4-4-4-4-4--|
A|--3-3-3-3-4-4-4-4--|--777/4--777/4--777/4-2-2-2-2--|
E|----------2-2-2-2--|------2------2------2----------|

Chorus
e|-------------------------------------------------------------|
B|-------------------------------------------------------------|
G|-----------------------------4-4-4--------------4-4-4--------|
D|--4--------------------2-2-2-4-4-4-4-4-4--2-2-2-4-4-4-4-4-4--|
A|--4--------------------2-2-2-2-2-2-4-4-4--2-2-2-2-2-2-4-4-4--|
E|--2..................--0-0-0-------2-2-2--0-0-0-------2-2-2--|

Outro
e|----------|
B|----------|
G|----------|
D|--44/7/4--|
A|--44/7/4--|
E|--22/5/2--|

=============================================================================

Copyrights
Author: ?
Composer: ?
Publisher: ?

Reactions

CommonCrawl [Bot]

Follow Muzikum