H20
My Curse (Guitar tab)

-------------------------------------------------------------------------------
MY CURSE - H20
-------------------------------------------------------------------------------

BY DJOLE fatdjole@ptt.yu

Intro
E|-----------------------------------------------------------------
B|-----------------------------------------------------------------
C|-----------------------------------------------------------------
D|--5-5--7--5-5--7--5-5-----------5-5-5--2-2-2--3-3-3--5-5-5-------
A|-----------------------7--7-5---5-5-5--2-2-2--3-3-3--3-3-3-------
E|--------------------------------3-3-3--0-0-0--1-1-1--------------

E|-----------------------------------------------------------------
B|-----------------------------------------------------------------
C|-----------------------------------------------------------------
D|--5-5--7--5-5--7--5-5-----------5-5-5--2-2-2--3-3-3-3-3----------
A|-----------------------7--7-5---5-5-5--2-2-2--3-3-3-3-3----------
E|--------------------------------3-3-3--0-0-0--1-1-1-1-1----------

Verse
E|-----------------------------------------------------------------
B|-----------------------------------------------------------------
C|-----------------------------------------------------------------\
D|--5-5-5-5-5-5--2-2-2-2-2-2--3-3-3-3-3-3-------------------------- |x2
A|--5-5-5-5-5-5--2-2-2-2-2-2--3-3-3-3-3-3--8-7-5-7-8-7-------------/
E|--3-3-3-3-3-3--0-0-0-0-0-0--1-1-1-1-1-1--------------------------

Chorus
E|-----------------------------------------------------------------
B|-----------------------------------------------------------------
C|-----------------------------------------------------------------
D|--5-5--7--5-5--7--5-5-----------5-5-5--2-2-2--3-3-3--5-5-5-------
A|-----------------------7--7-5---5-5-5--2-2-2--3-3-3--3-3-3-------
E|--------------------------------3-3-3--0-0-0--1-1-1--------------

E|-----------------------------------------------------------------
B|-----------------------------------------------------------------
C|-----------------------------------------------------------------
D|--5-5--7--5-5--7--5-5-----------5-5-5--2-2-2--3-3-3-3-3----------
A|-----------------------7--7-5---5-5-5--2-2-2--3-3-3-3-3----------
E|--------------------------------3-3-3--0-0-0--1-1-1-1-1----------

Verse ->

Chorus ->

E|-----------------------------------------------------------------
B|-----------------------------------------------------------------
C|-----------------------------------------------------------------\
D|--7-7-7-7-7--5-5-5-5-5------------------------------------------- |x4
A|--5-5-5-5-5--3-3-3-3-3-------------------------------------------/
E|-----------------------------------------------------------------

Verse ->

Chorus ->

E|-----------------------------------------------------------------
B|-----------------------------------------------------------------
C|-----------------------------------------------------------------
D|--5-5-5-5--5-5-5-5---2-2-2-2-2--3-3-3-3-3------------------------
A|--5-5-5-5--5-5-5-5---2-2-2-2-2--3-3-3-3-3------------------------
E|--3-3-3-3--3-3-3-3---0-0-0-0-0--1-1-1-1-1------------------------

E|-----------------------------------------------------------------
B|-----------------------------------------------------------------
C|-----------------------------------------------------------------
D|--5-5-5-5--x-x-x--5-5-5-5--x-x-x---2-2-2-2--x-x-x--3-3-3-3-------
A|--5-5-5-5--x-x-x--5-5-5-5--x-x-x---2-2-2-2--x-x-x--3-3-3-3-------
E|--3-3-3-3--x-x-x--3-3-3-3--x-x-x---0-0-0-0--x-x-x--1-1-1-1-------

Outro (Solo Guitar)
E|-----------------------------------------------------------------
B|-----------------------------------------------------------------
C|-----------------------------------------------------------------
D|--5-5-5-5-5-5-5-5-5-5-5-5-5-5-5-5-5--7-7-7-7--5-5-5-5-5-5-5-5----
A|-----------------------------------------------------------------
E|-----------------------------------------------------------------

E|-----------------------------------------------------------------
B|-----------------------------------------------------------------
C|-----------------------------------------------------------------
D|--5-5-5-5--2-2-2-2-2--3-3-3-3--3---------------------------------
A|-----------------------------------------------------------------
E|-----------------------------------------------------------------

Outro (Rythm Guitar)
E|-----------------------------------------------------------------
B|-----------------------------------------------------------------
C|-----------------------------------------------------------------\
D|--5-5-5-5-5--2-2-2-2-2--3-3-3-3-3--7-7-7-7-7-5------------------- |x3
A|--5-5-5-5-5--2-2-2-2-2--3-3-3-3-3--5-5-5-5-5-3-------------------/
E|--3-3-3-3-3--0-0-0-0-0--1-1-1-1-1--------------------------------

E|-----------------------------------------------------------------||
B|-----------------------------------------------------------------||
C|-----------------------------------------------------------------||
D|--5-5-5-5-5--2-2-2-2-2--3-3-3-3-3-3-3--3-------------------------||
A|--5-5-5-5-5--2-2-2-2-2--3-3-3-3-3-3-3--3-------------------------||
E|--3-3-3-3-3--0-0-0-0-0--1-1-1-1-1-1-1--1-------------------------||

-------------------------------------------------------------------------------

Copyrights
Author: ?
Composer: ?
Publisher: ?

Reactions

CommonCrawl [Bot]

Follow Muzikum