H20
Out Of Debt (Guitar tab)

-------------------------------------------------------------------------------
OUT OF DEBT - H2O
-------------------------------------------------------------------------------

Hey I just got this cd today (it just came out today too) This is my first
tab so there is probably some mistake somewhere but it sounds pretty good to
me, I also only did the lead guitar part the 2nd guitar isnt to hard to
figure out... if you see anything wrong with it just email me at
Linkie5326@hotmail.com... www.productofthesystem.com
-Justin

Intro/bridge type part
E----------------------------------------------
B----------------------------------------------
G7777-9-7-6-5-4-------------------------------- x3
D----------------------------------------------
A----------------------------------------------
E----------------------------------------------

2nd half of the intro/bridge type part
E----------------------------------------------
B----------------------------------------------
G7777-9-7-9-11--------------------------------- x1
D----------------------------------------------
A----------------------------------------------
E----------------------------------------------

verse
E----------------------------------------------
B----------------------------------------------
G---------------------------------------------- x6
D5-5-5-5--9-9-9-9--11-11-11-11-----------------
A5-5-5-5--9-9-9-9--11-11-11-11-----------------
E3-3-3-3--7-7-7-7--9--9--9--9------------------

chorus
E----------------------------------------------
B----------------------------------------------
G---------------------------------------------- x4
D5-5--7-7-7-7-7-7------------------------------
A5-5--7-7-7-7-7-7------------------------------
E3-3--5-5-5-5-5-5------------------------------
(You gotta listen to that to get all the struming right...)

E----------------------------------------------
B----------------------------------------------
G7777-9-7-6-5-4-------------------------------- x1
D----------------------------------------------
A----------------------------------------------
E----------------------------------------------

E----------------------------------------------
B----------------------------------------------
G7777-9-7-9-11--------------------------------- x1
D----------------------------------------------
A----------------------------------------------
E----------------------------------------------

verse
E----------------------------------------------
B----------------------------------------------
G---------------------------------------------- x6
D5-5-5-5--9-9-9-9--11-11-11-11-----------------
A5-5-5-5--9-9-9-9--11-11-11-11-----------------
E3-3-3-3--7-7-7-7--9--9--9--9------------------

chorus
E----------------------------------------------
B----------------------------------------------
G---------------------------------------------- x4
D5-5--7-7-7-7-7-7------------------------------
A5-5--7-7-7-7-7-7------------------------------
E3-3--5-5-5-5-5-5------------------------------

(I dont owe anymore............)
Just palm mute this alto at this part

E----------------------------------------------
B----------------------------------------------
G---------------------------------------------- x4
D5---------------------------------------------
A5---------------------------------------------
E3---------------------------------------------

(where will I got buy...)

E----------------------------------------------
B----------------------------------------------
G---------------------------------------------- xalot
D7777-9999-7777-5555---------------------------
A----------------------------------------------
E----------------------------------------------

chorus
E----------------------------------------------
B----------------------------------------------
G---------------------------------------------- x4
D5-5--7-7-7-7-7-7------------------------------
A5-5--7-7-7-7-7-7------------------------------
E3-3--5-5-5-5-5-5------------------------------

(I dont owe anymore............)
Just palm mute this alto at this part

E----------------------------------------------
B----------------------------------------------
G---------------------------------------------- x4
D5---------------------------------------------
A5---------------------------------------------
E3---------------------------------------------

outro
E----------------------------------------------
B----------------------------------------------
G7777-9-7-6-5-4-------------------------------- x2
D----------------------------------------------
A----------------------------------------------
E----------------------------------------------

outro 2nd half
E----------------------------------------------
B----------------------------------------------
G7777-9-7-7-9-7-6-5-4-3------------------------ x1
D----------------------------------------------
A----------------------------------------------
E----------------------------------------------

-------------------------------------------------------------------------------

Copyrights
Author: ?
Composer: ?
Publisher: ?
More details
Language: English

Reactions

CommonCrawl [Bot]

Follow Muzikum