H20
Sacred Heart (Guitar tab)

-------------------------------------------------------------------------------
SACRED HEART - H2O
-------------------------------------------------------------------------------

by DJOLE fatdjole@ptt.yu

Verse
E|---------------------------------------------------------
B|---------------------------------------------------------
C|---------------------------------------------------------
D|------5---5-5-5-5--------5---5-5-5-5-------5---5-5-5-5--- \
A|--5-7-----3-3-3-3----5-7-----3-3-3-3---5-7-----3-3-3-3---
E|---------------------------------------------------------
|x2
E|---------------------------------------------------------
B|---------------------------------------------------------
C|--------------------------------------------------------- /
D|--4-4--5--4--2--5----------------------------------------
A|--2-2--3--2--0--5----------------------------------------
E|----------------3----------------------------------------

Chorus
E|----------------------------------------------------------
B|----------------------------------------------------------
C|----------------------------------------------------------
D|--9-9-9-9--7-7-7-7--5-5--5--5-5--5--5-5--5--5-5--5-------- \
A|--7-7-7-7--5-5-5-5--3-3--3--3-3--3--3-3--3--3-3--3--------
E|----------------------------------------------------------
|x2
E|----------------------------------------------------------
B|----------------------------------------------------------
C|---------------------------------------------------------- /
D|--9-9-9-9--5-5-5-5--7-7-7-7-7-7---------------------------
A|--7-7-7-7--5-5-5-5--5-5-5-5-5-5---------------------------
E|-----------3-3-3-3----------------------------------------

Verse ->

Chorus ->

E|--------------------------------------------
B|--------------------------------------------
C|--------------------------------------------
D|--2-2--5-5--7-7-7-7-7-7---------------------
A|--2-2--5-5--5-5-5-5-5-5---------------------
E|--0-0--3-3----------------------------------

E|---------------------- ---------------------------
B|---------------------- ---------------------------
C|----------------------\ ---------------------------
D|--4-4--5--4--2--5-5--- |x3 --4-4-4--7-7-7-7-7-7-------
A|--2-2--3--2--0--5-5---/ --2-2-2--7-7-7-7-7-7-------
E|----------------3-3--- ---------5-5-5-5-5-5-------

Chorus
E|-------------------------------------------------------------
B|-------------------------------------------------------------
C|-------------------------------------------------------------
D|--9--7--5-5-5-5-5-5-5---9-9-9-9--5-5-5-5--7-7-7-7------------
A|--7--5--3-3-3-3-3-3-3---7-7-7-7--5-5-5-5--5-5-5-5------------
E|---------------------------------3-3-3-3---------------------

E|---------------------------------------------------------------
B|---------------------------------------------------------------
C|---------------------------------------------------------------
D|--9-9-9-9--7-7-7-7--5-5-5-5-5-5-5---9-9-9-9--5-5-5-5--7-7-7-7--
A|--7-7-7-7--5-5-5-5--3-3-3-3-3-3-3---7-7-7-7--5-5-5-5--5-5-5-5--
E|---------------------------------------------3-3-3-3-----------

E|--------------||
B|--------------||
C|--------------||
D|--4-4-4--5----||
A|--2-2-2--3----||
E|--------------||

-------------------------------------------------------------------------------

Copyrights
Author: ?
Composer: ?
Publisher: ?

Reactions

CommonCrawl [Bot]

Follow Muzikum