Eterna Miseria

Eterna Miseria
I (Guitar tab)

Song: "I.N.T.E.R.N.O. D.M."
Artist: Eterna Miseria
Album: EM
Transcribed By: Chundark (eternamiseria@hotmail.com)

Tuning: Drop D, Down 1 1/2 Steps (B,F#,B,E,G#,C#)

- harmonic
^ - Bend string
* - pinch harmonic

INTRO 1: (w/ clean)
|-------------------------|
|-------------------------|
|-------------------------|
|-0-0-0-3-0-0-0-8-0-0-0-2-|
|-0-0-0-3-0-0-0-8-0-0-0-2-|
|-0-0-0-3-0-0-0-8-0-0-0-2-|

INTRO 2: (w/ distortion)

|-------------------------|
|-------------------------|
|-------------------------|
|-0-0-0-3-0-0-0-8-0-0-0-2-|
|-0-0-0-3-0-0-0-8-0-0-0-2-|
|-0-0-0-3-0-0-0-8-0-0-0-2-|

VERSE 1 & 2 : (palm mute w/ distortion)
|-------------------------|
|-------------------------|
|-------------------------|
|-------------------------|
|-------------------------|
|-0-0-0-3-0-0-0-8-0-0-0-2-|
PM

CHORUS : (palm mute w/ distortion)
|------------------------------------------------------------|
|------------------------------------------------------------|
|------------------------------------------------------------|
|-0-0-0-1--0-0-0-2-2-3-2-2-3--0-0-0-1-0-1--0-0-0-2-2-3-2-2-3-|
|-0-0-0-1--0-0-0-2-2-3-2-2-3--0-0-0-1-0-1--0-0-0-2-2-3-2-2-3-|
|-0-0-0-1--0-0-0-2-2-3-2-2-3--0-0-0-1-0-1--0-0-0-2-2-3-2-2-3-|
PM

INTERLUDE 1: (w/ clean)
|---------0----0-----0-------------0------0-----0-----|
|-----5-5---5----5-----5---------6---6------6-----6---|
|-----------------------------------------------------|
|---6---------6----6-----6-----7-------7------7-----7-|
|-4--------------------------5------------------------|
|--------------------------------------------------------|

VERSE 3: (w/ distortion)
|-------------------------------------------|
|-------------------------------------------|
|-------------------------------------------|
|-4-4-4-4-4-4-4-5-5-5-5-5-5-----------------|
|-4-4-4-4-4-4-4-5-5-5-5-5-5--------------|
|-4-4-4-4-4-4-4-5-5-5-5-5-5--------|

INTERLUDE 2: (palm mute w/ distortion)
|-----------------------|
|-----------------------|
|-----------------------|
|-----------------------|
|-2-2-2-3-2-2-2-3-2-2-3-|
|-2-2-2-3-2-2-2-3-2-2-3-|

OptimusPrime

Submitted by OptimusPrime at Thu 14 Aug, 2003 4:45 pm

Author: ?
Composer: ?
Publisher: ?
Language: English

Reactions

CommonCrawl [Bot]

Follow Muzikum