Emerson, Lake & Palmer

Emerson, Lake & Palmer
The Only Way (Bass tab)

The Only Way (A Hymn)
Emerson Lake & Palmer
Transcribed by Justin Benz


Organ & Vocals 2:24
G---|-----------------|------------------------------|--14--10------------------
D---|-----------------|--12-----12-----12-----12-----|----------14--12----------
A---|-----------------|------------------------------|------------------13------
E---|-----------------|------------------------------|--------------------------



G---------------|---------------------------------|-----------------------------
D---------------|-------------11--12--------------|-----------------------------
A---10----------|---------12----------12----------|--------------12--10--12-----
E-------12--10--|--9--12------------------13--12--|--10--12--13-----------------



G-----------|------------------15--14----------|--------------------------------
D-------12--|--10--12--14--10----------15--10--|------------------10------------
A---13------|----------------------------------|--13--12--10--13------13--12----
E-----------|----------------------------------|--------------------------------



G-------|----------------------------------|--10--------------------------|-----
D---10--|--12--10------12--14--12--10--14--|---------14-----12-----10-----|-----
A-------|----------13----------------------|------------------------------|-----
E-------|----------------------------------|------------------------------|-----



G------------------------------|--------------------------|---------------------
D------------------------------|--------------------7-----|---------------------
A---13-----12-----10-----8-----|--7-----------8-----------|--------7-----8------
E------------------------------|--------8-----------------|--8------------------


2:42
G---------|-----------|-------------------|-----------------------9--10--|------
D---------|-----------|-------------------|-------------------12---------|------
A---------|--7--------|------------13-----|/12------------12-------------|------
E---------|-----------|--10---------------|-----------10-----------------|------



G--------------------|------------------|--------------------|------------------
D--------------------|------------------|--12----------------|--10--------------
A-------------13-----|/12---------------|---------12--10-----|------------8-----
E---10---------------|-----------10-----|--------------------|------------------



G------|---------------|---------------------------|-----------------|----------
D------|--8-----10-----|---------------------------|-----------------|----------
A------|---------------|-----8-----7---------------|-----------6-----|--8-------
E------|---------------|-----------------10-----6--|-----9-----------|----------


3:14
G----------------------|--------------------|--------------|--------------------
D----------------------|--------------------|--------------|--------------------
A---7------------------|--------------8-----|--7-----------|------------13------
E---------10-----6-----|-----3--------------|--------------|--10----------------



G------|----------------------|----------------------------|--------------------
D------|----------------------|--12-----12-----------------|--------------------
A------|/12---------------12--|-------------12------13-----|--12-----12---------
E------|-----------10---------|-----------------10---------|-------------10-----



G------|----------------------------|--------------------|---------------|------
D------|--12-----12-----------------|--------------------|--8-----10-----|------
A------|-------------12--10-----12--|-----------8-----8--|---------------|------
E------|----------------------------|--8-----------------|---------------|------



G----------------------------|-----------------|--------------------------------
D----------------------------|-----------------|--------------------------------
A------8-----7---------------|-----------6-----|--8-----7-----------------------
E------------------10-----6--|-----9-----------|-----8-----8-----10-----6-------


Segue into "Infinite Space"
G---|--------------------|--------------||--------------------------------------
D---|--------------------|--------------||--------------------------------------
A---|--------------8-----|--7-----------||--------------------------------------
E---|-----3--------------|--------------||--------------------------------------




================================================================================
== Created with a demo version of BUCKET O' TAB ==
== tablature creation software for Windows ==
== http://www.his.com/~gse/bucket ==
================================================================================

OptimusPrime

Submitted by OptimusPrime at Sun 01 Dec, 2002 9:43 am

Author: ?
Composer: ?
Publisher: ?
Language: English

Reactions

CommonCrawl [Bot]

Follow Muzikum