Emerson, Lake & Palmer

Emerson, Lake & Palmer
Jeremy Bender (Bass tab)

Jeremy Bender
Emerson Lake & Palmer
Transcribed by Justin Benz


Piano 0:15
G---|-----------------|-----------||---------------|--------------|-------------
D---|-----------------|-----7-----||*--------------|--------------|--4-----5----
A---|-----------------|--7-----5--||*--5-----3-----|--------2-----|-------------
E---|-----------------|-----------||---------------|--3-----------|-------------



G------|--------------|--------------|--------------|--------------|------------
D------|--------7-----|--------------|--------------|--4-----5-----|-----7------
A------|--7-----------|--5-----3-----|--------2-----|--------------|--7---------
E------|--------------|--------------|--3-----------|--------------|------------


0:39
G-------||--------------|--------------|--------------|--------------|----------
D------*||--------------|--------------|--4-----5-----|--------7-----|----------
A---5--*||--5-----3-----|--------2-----|--------------|--7-----------|--5-------
E-------||--------------|--3-----------|--------------|--------------|----------


0:51
G---------|--------------|--------------|-----------||---------------|----------
D---------|--------------|--4-----5-----|-----7-----||*--5-----4-----|----------
A---3-----|--------2-----|--------------|--7-----5--||*--------------|--7-------
E---------|--3-----------|--------------|-----------||---------------|----------


3x 1:02
G-------||--||---------------|--------------|--------------|--------------|-----
D------*||--||*--------------|--------------|--4-----5-----|--------7-----|-----
A---5--*||--||*--5-----3-----|--------2-----|--------------|--7-----------|-----
E-------||--||---------------|--3-----------|--------------|--------------|-----



G---------------|--------------|--------------|------------||--------------|----
D---------------|--------------|--4-----5-----|-----7-----*||--------------|----
A---5-----3-----|--------2-----|--------------|--7-----5--*||--5-----3-----|----
E---------------|--3-----------|--------------|------------||--------------|----



G---------------|--------------|--------------|--------------|------------------
D---------------|--4-----5-----|--------7-----|--------------|------------------
A---------2-----|--------------|--7-----------|--5-----3-----|--------2---------
E---3-----------|--------------|-----5--------|--------------|--3---------------



G---|--------------|--------7--||-----------------------------------------------
D---|--4-----5-----|-----7-----||-----------------------------------------------
A---|--------------|--7-----5--||-----------------------------------------------
E---|--------------|-----------||-----------------------------------------------




================================================================================
== Created with a demo version of BUCKET O' TAB ==
== tablature creation software for Windows ==
== http://www.his.com/~gse/bucket ==
================================================================================

OptimusPrime

Submitted by OptimusPrime at Sun 01 Dec, 2002 9:43 am

Author: ?
Composer: ?
Publisher: ?
Language: Malagasy

Reactions

CommonCrawl [Bot]

Follow Muzikum