Earthtone9

Earthtone9
Grind And Click (Guitar tab)

author/artist: earthtone9
title: grind & click
album: off kilter enhancement
transcribed by: oz
email: oz@earthtone9.com
-|------------------------------------|---------------------------------------
-|------------------------------------|---------------------------------------
-|-8-8-8-7v-7-8-8-8-7v-7--------------|---------------------------------------
-|-0-0-0-0--0-0-0-0-0--0--------------|---------------------------------------
-|------------------------------------|---------------------------------------
-|-----------------------1-1-1-1------|-1-1-1-1-------------------------------
gtr 1 - intro / verse gtr2 - intro
-|---5---5-5-5-5/6-6-6/8--8--8--8-/-------------------------------------------
-|---5-5-5-5-5-5/6-6-6/8--8--8--8-/-------------------------------------------
-|-7-7-7-7-7-7-7/8-8-8/10-10-10-10/7------------------------------------------
-|-7-7-7-7-7-7-7/8-8-8/10-10-10-10/7------------------------------------------
-|----------------------------------------------------------------------------
-|----------------------------------------------------------------------------
gtr 1 - chorus x4
-|----------------------------------------------------------------------------
-|----------------------------------------------------------------------------
-|-7-----------7/8---8/10--------10/7-----------------------------------------
-|-x-----------x/x---x/x---------x-/x-----------------------------------------
-|-5-----------5/6---6/8---------8-/5-----------------------------------------
-|----------------------------------------------------------------------------
gtr 2 - chorus (check rhythm on cd)
-|------------------------12---12h16--12--13--12--13--14--14------------------
-|-12---12h15--12--12h15--15b--15b----15b-16b-15b-16b-17b-17b-----------------
-|-14b--14b----14b-14b--------------------------------------------------------
-|----------------------------------------------------------------------------
-|----------------------------------------------------------------------------
-|----------------------------------------------------------------------------
gtr 1 - solo
-|----------------------------------------------------------------------------
-|----------------------------------------------------------------------------
-|----------------------------------------------------------------------------
-|----------------------------------------------------------------------------
-|-------------13-13-13-13----------------------------------------------------
-|-0/12--0/12--12-12-12-12----------------------------------------------------
gtr 2 - solo

OptimusPrime

Submitted by OptimusPrime at Sun 01 Dec, 2002 9:45 am

Author: ?
Composer: ?
Publisher: ?
Language: English

Reactions

CommonCrawl [Bot]

Follow Muzikum