Earthtone9

Earthtone9
Evil Crawling I (Guitar tab)

author/artist: earthtone9
title: evil crawling i
album: arc' tan' gent
transcribed by: oz
email: oz@earthtone9.com
-|----------------------------------------------------------------------------
-|----------------------------------------------------------------------------
-|----------------------------------------------------------------------------
-|-----------------------------------------2----------------------------------
-|-----------------------------------------2----------------------------------
-|-0-2-2p0-2-3v-0-2p0-2-0-2-5-0-2-2p0-2-3v-0----------------------------------
gtr 1 - intro x2
-|----------------------------------------------------------------------------
-|-------------------------------------------------0-0-0----------------------
-|-------------------------------------------------0-0-0----------------------
-|----------------------------------------------------------------------------
-|----------------------------------------------------------------------------
-|-0-2-2p0-2-3v-0-2p0-2-0-2-5-0-2-2p0-2-3v-0-2-2p0----------------------------
gtr 1&2 - verse
-|----------------------------------------------------------------------------
-|-8--7--8--10--11------8--7--8--10--13---------------------------------------
-|-0--0--0--0---0-------0--0--0--0---0----------------------------------------
-|-8--7--8--10--10------8--7--8--10--13---------------------------------------
-|-6--5--6--8---8-------6--5--6--8---11---------------------------------------
-|----------------------------------------------------------------------------
gtr 1&2 - chorus
-|---------------------------|-----------3------------------------------------
-|---------------------------|-----------3-----------6------------------------
-|-11b-----------------------|-----------0-----------5------------------------
-|-x-------------------------|-2-4-4-2---0-2-4-4-2---3------------------------
-|-9-------------------------|-2-4-4-2---2-2-4-4-2---3------------------------
-|---------------------------|-0-2-2p0-x-3-0-2-2p0-x--------------------------
gtr 1 - mid pt1 (w. wah) gtr 2 - mid pt1
-|---------------------|-0--0--0--0-----------------|-------------------------
-|---------------------|-4--5--4--15b---------------|-------------------------
-|----------9-9--------|----------------------------|-------------------------
-|-6--7--6--9-8--------|----------------------------|-------------------------
-|-6--6--6--7-7--0-----|----------------------------|-------------------------
-|-4--5--4-------------|----------------------------|-7v----------------------
gtr 1&2 - mid pt2 gtr 1 - lead part gtr 1&2 - end of mid

OptimusPrime

Submitted by OptimusPrime at Sun 01 Dec, 2002 9:45 am

Author: ?
Composer: ?
Publisher: ?
Language: English

Reactions

CommonCrawl [Bot]

Follow Muzikum