Dog Fashion Disco
G Eye Joe (Guitar tab)

Author/Artist: Dog Fashion Disco
Title: G. Eye Joe
Album: The Embryo's in Bloom
Email: john1645@msu.edu
By: Alpha-Q
Tuning: Standard (E,A,D,G,b,e) (Low to High)

p pull off
/ slide up
PM palm mute

Note: The parts are all there, just listen to the song to figure it out.
You can download it from www.mp3.com/dfd
(PM All)
|-------------------------------|
|-------------------------------|
|-------------------------------|
|-------------------------------|
|-----3p0-----3p0-----3p0-----3-|
|-0-0-1p0-0-0-1p0-0-0-1p0-0-0-1-|


|------------------------------------------------------|-------|
|------------------------------------------------------|-------|
|------------------------------------------------------|-------|
|----------------------------------------------------1-|-3/--8-|
|-----3-0-3------3-0-3-----3-----3-0-3-----3-0-3-----1-|-3/--8-|
|-0-0-1-0-1--0-0-1-0-1-0-0-1-0-0-1-0-1-0-0-1-0-1-0-0-1-|-1p0-6-|
pm. . . . . . . . . . . . . . . . . .


|---------------|
|---------------|
|-----9-----9---|
|---9---9-----8-|
|-7-------7-----|

|-----------------------------------|
|-----------------------------------|
|-9-9-10-9--9-9-10-9--9-9-10-9--9-9-|
|-9-9-10-9--9-9-10-9--9-9-10-9--9-9-|
|-7-7--8-7--7-7-8--7--7-7--8-7--7-7-|
|-----------------------------------|

|-------------------|
|-------------------|
|-------------------|
|-----8---8---5---5-|
|-----8---8---5---5-|
|-0-0-6-0-6-0-3-0-3-|
PM. . . . .
|-----------------------|
|-----------------------|
|-----------------------|
|-----8---8---5---3---5-|
|-----8---8---5---3---5-|
|-0-0-6-0-6-0-3-0-1-0-3-|
PM. . . . . .
|-----------------------|
|-----------------------|
|-----------------------|
|-----8---8---5---5---5-|
|-----8---8---5---5---5-|
|-0-0-6-0-6-0-3-0-3-0-3-|
PM. . . . . .


E-mail me any corrections or comments

Copyrights
Author: ?
Composer: ?
Publisher: ?
More details
Language: English

Reactions

CommonCrawl [Bot]

Follow Muzikum