The Bambi Molesters
C Alpha E (Guitar tab)

Song: C Alpha E
Artist: The Bambi Molesters
Album: Intensity!
Tab by: Goran Kalamiza (forgottentab@hotmail.com)

Tuning is normal, E A D G B E (from low to high). There's many of slides through whole song, so I guess the song is played only on a E string, but I'm not sure. Enjoy!

Intro
guitar #2
/ x10 \
|-----------------|-------7---7-5---5---7---7-5---5-|
|---------4-------|-------8---8-6---6---8---8-6---6-|
|---3-4-5---5-4-3-|---3-4---------------------------|
|-5---------------|-5-------------------------------|
|-----------------|---------------------------------|
|-----------------|---------------------------------|
. . . . . . . . . . . .
guitar #1
Intro
|-----|
|-----|
|-----|
|-----|
|-10\-|
|-----|

Theme
|-----------------------------------------------------------------|
|-----------------------------------------------------------------|
|-----------------------------------------------------------------|
|-----------------------------------------------------------------|
|-3-3-3-6-6-6-----3-3-3-6-6-6-----3-3-3-6-6-6-----3-3-3-6-6-6-----|
|-------------3-3-------------3-3-------------3-3-------------3-3-|
+ + + + + + + + + + + + + + + + + + + + + + + + + + + + + + + +

|-------------------------------------------------------------------------------------------------|
|-------------------------------------------------------------------------------------------------|
|-------------------------------------------------------------------------------------------------|
|-------------------------------------------------------------------------------------------------|
|-------------------------------------------------------------------------------------------------|
|-4-4-4-4-4-4-4-4-4-4-4-4-4-4-4-4-1-1-1-1-1-1-1-1-1-1-1-1-1-1-1-1-3-3-3-3-3-3-3-3-3-3-3-3-3-3-3-3-|
+ + + + + + + + + + + + + + + + + + + + + + + + + + + + + + + + + + + + + + + + + + + + + + + +

|----------------------------------------------------------------|
|----------------------------------------------------------------|
|----------------------------------------------------------------|
|----------------------------------------------------------------|
|-5-5-5-3-3-3-----5-5-5-3-3-3------------------------------------|
|-------------4-4-------------4-4-3---3---3-3---3----------------|
+ + + + + + + + + + + + + + + +

|----------------------------------------------------------------|
|----------------------------------------------------------------|
|----------------------------------------------------------------|
|-5-5-5-3-3-3-----5-5-5-3-3-3------------------------------------|
|-------------4-4-------------6-6-5---5---5-5---5----------------|
|----------------------------------------------------------------|
+ + + + + + + + + + + + + + + +

|-----------------------------------------------3*---------------|
|-----------------------------------------------3*---------------|
|-----------------------------------------------4*---------------|
|-----------------------------------------------5*---------------|
|-5-5-5-3-3-3-----5-5-5-3-3-3------------------------------------|
|-------------4-4-------------4-4-3---3---3-3--------------------|
+ + + + + + + + + + + + + + + +

|----------------------------------------------------------------|
|----------------------------------------------------------------|
|----------------------------------------------------------------|
|-5-5-5-3-3-3-----5-5-5-3-3-3------------------------------------|
|-------------4-4-------------6-6-5---5---5-5---5----------------|
|----------------------------------------------------------------|
+ + + + + + + + + + + + + + + +

Bridge
|-3*-|
|-4*-|
|-5*-|
|-5*-| x2
|-3*-|
|----|

Bridge
guitar #2
|-----------------------------------|
|---------8-7-------------8-7-------|
|-5---5-5-----8-5---5-5-5-----8-5---|
|-----------------------------------|
|-----------------------------------|
|-----------------------------------|
. . . . . . . . . . . . . .

|---------------------------|
|---------8-7---------------|
|-5---5-5-----8-5---5-5-5-5-|
|---------------------------|
|---------------------------|
|---------------------------|
. . . . . . . . . . .

After that play intro guitar #2, and guitar #1 goes like this:

Theme
|-----------------------------------------------------------------|
|-----------------------------------------------------------------|
|-----------------------------------------------------------------|
|-----------------------------------------------------------------|
|-3-3-3-6-6-6-----3-3-3-6-6-6-----3-3-3-6-6-6-----3-3-3-6-6-6-----|
|-------------3-3-------------3-3-------------3-3-------------3-3-|
+ + + + + + + + + + + + + + + + + + + + + + + + + + + + + + + +

|-------------------------------------------------------------------------------------------------|
|-------------------------------------------------------------------------------------------------|
|-------------------------------------------------------------------------------------------------|
|-------------------------------------------------------------------------------------------------|
|-------------------------------------------------------------------------------------------------|
|-4-4-4-4-4-4-4-4-4-4-4-4-4-4-4-4-1-1-1-1-1-1-1-1-1-1-1-1-1-1-1-1-3-3-3-3-3-3-3-3-3-3-3-3-3-3-3-3-|
+ + + + + + + + + + + + + + + + + + + + + + + + + + + + + + + + + + + + + + + + + + + + + + + +

|----------------------------------------------------------------|
|----------------------------------------------------------------|
|----------------------------------------------------------------|
|----------------------------------------------------------------|
|-5-5-5-3-3-3-----5-5-5-3-3-3------------------------------------|
|-------------4-4-------------4-4-3---3---3-3---3----------------|
+ + + + + + + + + + + + + + + +

|----------------------------------------------------------------|
|----------------------------------------------------------------|
|----------------------------------------------------------------|
|-5-5-5-3-3-3-----5-5-5-3-3-3------------------------------------|
|-------------4-4-------------6-6-5---5---5-5---5----------------|
|----------------------------------------------------------------|
+ + + + + + + + + + + + + + + +

|----------------------------------------------------------------|
|----------------------------------------------------------------|
|----------------------------------------------------------------|
|----------------------------------------------------------------|
|-5-5-5-3-3-3-----5-5-5-3-3-3------------------------------------|
|-------------4-4-------------4-4-3---3---3-3---3----------------|
+ + + + + + + + + + + + + + + +

|----------------------------------------------------------------|
|----------------------------------------------------------------|
|----------------------------------------------------------------|
|-5-5-5-3-3-3-----5-5-5-3-3-3------------------------------------|
|-------------4-4-------------6-6-5---5---5-5---5----------------|
|----------------------------------------------------------------|
+ + + + + + + + + + + + + + + +

Bridge
|-3*-|
|-4*-|
|-5*-|
|-5*-| x2
|-3*-|
|----|

Bridge guitar #2 plays the same Cm but with small pauses. Listen the song if you're not sure.

Theme
|-----------------------------------------------------------------|
|-----------------------------------------------------------------|
|-----------------------------------------------------------------|
|-----------------------------------------------------------------|
|-3-3-3-6-6-6-----3-3-3-6-6-6-----3-3-3-6-6-6-----3-3-3-6-6-6-----|
|-------------3-3-------------3-3-------------3-3-------------3-3-|
+ + + + + + + + + + + + + + + + + + + + + + + + + + + + + + + +

|-------------------------------------------------------------------------------------------------|
|-------------------------------------------------------------------------------------------------|
|-------------------------------------------------------------------------------------------------|
|-------------------------------------------------------------------------------------------------|
|-------------------------------------------------------------------------------------------------|
|-4-4-4-4-4-4-4-4-4-4-4-4-4-4-4-4-1-1-1-1-1-1-1-1-1-1-1-1-1-1-1-1-3-3-3-3-3-3-3-3-3-3-3-3-3-3-3-3-|
+ + + + + + + + + + + + + + + + + + + + + + + + + + + + + + + + + + + + + + + + + + + + + + + +

|----------------------------------------------------------------|
|----------------------------------------------------------------|
|----------------------------------------------------------------|
|----------------------------------------------------------------|
|-5-5-5-3-3-3-----5-5-5-3-3-3------------------------------------|
|-------------4-4-------------4-4-3-3-3-3-3-3---3----------------|
+ + + + + + + + + + + + + + + + + + + + + +

|----------------------------------------------------------------|
|----------------------------------------------------------------|
|----------------------------------------------------------------|
|-5-5-5-3-3-3-----5-5-5-3-3-3------------------------------------|
|-------------x-x-------------6-6-5---5---5-5---5----------------|
|----------------------------------------------------------------|
+ + + + + + + + + + + + + +

|-----------------------------------------------3*---------------|
|-----------------------------------------------3*---------------|
|-----------------------------------------------4*---------------|
|-----------------------------------------------5*---------------|
|-5-5-5-3-3-3-----5-5-5-3-3-3------------------------------------|
|-------------4-4-------------4-4-3---3---3-3--------------------|
+ + + + + + + + + + + + + + + +

|----------------------------------------------------------------|
|----------------------------------------------------------------|
|----------------------------------------------------------------|
|-5-5-5-3-3-3-----5-5-5-3-3-3------------------------------------|
|-------------4-4-------------6-6-5---5---5-5---5----------------|
|----------------------------------------------------------------|
+ + + + + + + + + + + + + + + +

Bridge
|-3*-|
|-4*-|
|-5*-|
|-5*-| x3
|-3*-|
|----|

Outro
|-3---3---1-1---3-|
|-4---4---3-3---4-|
|-5---5---3-3---5-|
|-5---5---3-3---5-|
|-3---3---1-1---3-|
|-----------------|

Tablature explanation:
/ or \ slide up or down
+ double picking
. palm muted
* tremolo

Copyrights
Author: ?
Composer: ?
Publisher: ?
More details
Language: English

Reactions

CommonCrawl [Bot]

Follow Muzikum