A Day Late
Melissa (Bass tab)

chris dunne
rockbassking@aol.com
please rate my tabs

Intro
G|---------------------------------------------------------------------------|
D|---------------------------------------------------------------------------|
A|-7-7-7-7-7-7-7-7-----------------4-4-4-4-4-4-4-4---------------------------|
E|-----------------7-7-7-7-7-7-7-7-----------------4-4-4-4-5-5-5-5-----------|

Verse
G|---------------------------------------------------------------------------|
D|---------------------------------------------------------------------------|
A|-7-7-7-7-7-7-7-7-----------------4-4-4-4-4-4-4-4---------------------------|
E|-----------------7-7-7-7-7-7-7-7-----------------4-4-4-5-5-5---------------|

Chorus
G|---------------------------------------------------------------------------|
D|---------------------------------------------------------------------------|
A|-7-7-7-7-7-7-7-7-----------------------------------------------------------|
E|-----------------7-7-7-7-7-7-7-7-5-5-5-5-5-5-5-5-7-7-7-7-7-7-7-7-----------|

Interlude
G|---------------------------------------------------------------------------|
D|---------------------------------------------------------------------------|
A|-7-7-7-7-7-7-7-7-----------------4-4-4-4-4-4-4-4---------------------------|
E|-----------------7-7-7-7-7-7-7-7-----------------5-5-5-5-5-5-5-5-----------|

Copyrights
Author: ?
Composer: ?
Publisher: ?
More details
Language: English

Reactions

CommonCrawl [Bot]

Follow Muzikum