A Day Late
I Wana Be The Terminater (Bass tab)

chris dunne
rockbassking@aol.com
please rate my tabs

Intro
G|---------------------------------------------------------------------------|
D|---------------------------------------------------------------------------|
A|-7-7-7-7-7-7-7-7-----------------4-4-4-4-4-4-4-4---------------------------|
E|-----------------7-7-7-7-7-7-7-7-----------------4-4-4-4-4-4-4-4-----------|

Verse
G|---------------------------------------------------------------------------|
D|---------------------------------------------------------------------------|
A|-----------------2-2-2-2-2-2-2-2-4-4-4-4-4-4-4-4---------------------------|
E|-0-0-0-0-0-0-0-0---------------------------------4-4-4-4-4-4-4-4-----------|

Chorus
G|---------------------------------------------------------------------------|
D|---------------------------------------------------------------------------|
A|-2-2-2-2-2-2-2-2-----------------4-4-4-4-4-4-4-4---------------------------|
E|-----------------4-4-4-4-4-4-4-4-----------------2-2-2-2-2-2-2-2-----------|

Copyrights
Author: ?
Composer: ?
Publisher: ?
More details
Language: English

Reactions

CommonCrawl [Bot]

Follow Muzikum