A Day Late
Going Out (Bass tab)

chris dunne
rockbassking@aol.com
please rate this tab
Intro Part 1
G|---------------------------------------------------------------------------|
D|---------------------------------------------------------------------------|
A|---------------------------------------------------------------------------|
E|-5-------7--------33-33-33-33----------------------------------------------|

Intro Part 2
G|---------------------------------------------------------------------------|
D|---------------------------------------------------------------------------|
A|-5-5-5-5-5-5-5-5---------------------------------3-3-3-3-3-3-3-3-----------|
E|-----------------5-5-5-5-5-5-5-5-7-7-7-7-7-7-7-7---------------------------|

Verse
G|---------------------------------------------------------------------------|
D|---------------------------------------------------------------------------|
A|-5-5-5-5-------------------------------------------------------------------|
E|---------5-5-5-5-7-7-7-7-3-3-3-3-------------------------------------------|

Chorus
G|---------------------------------------------------------------------------|
D|---------------------------------------------------------------------------|
A|-5-5-5-5-5-5-5-5-----------------------------------------------------------|
E|-----------------5-5-5-5-5-5-5-5-7-7-7-7-7-7-7-7-7-3-3-3-3-3-3-3-3---------|

Copyrights
Author: ?
Composer: ?
Publisher: ?
More details
Language: English

Reactions

CommonCrawl [Bot]

Follow Muzikum