Wakefield
Infamous (Guitar tab)

Intro:
(C) (G) (F)
(1)3-3-3---3-3--3---1-1--
(2)4-4-4---4-4--4---1-1--
(3)5-5-5---4-4--4---2-2--
(4)5-5-5---5-5--5---3-3--
(5)3-3-3---5-5--5---3-3--
(6)----------------------(repeat a few times)

Guitar Solo:
(1)----------------------------------------------------
(2)----------------------------------------------------
(3)----------------------------------------------------
(4)--------------------------------------9-9-9--7-7-7--
(5)-3-3--0--2-2--4-4-------3-2-3--3-3-3--7-7-7--5-5-5--
(6)-------------------4-4------------------------------(repeat)

Copyrights
Author: ?
Composer: ?
Publisher: ?
More details
Language: English

Reactions

CommonCrawl [Bot]

Follow Muzikum