Ultimate Fakebook
Soaked In Cinnamon (Guitar tab)

|-------------------|
------------------------------| Ultimate FakeBook |---------------------------------
| |
|SOAKED IN CINNAMON |

By: Jeff (Jeffo@email.com)

~ - hold note out
/ - slide up
\ - slide down
x after a note - stop quickly
p.m... - palm mute
x after a number - times to repeat

whats there to say, great song...

Intro 4x
e|------------------------------------------------------------|
B|------------------------------------------------------------|
G|-0----0-----------55-7--------------------------------------|
D|---3---3----33-55-55-7--------------------------------------|
A|1----1--1---33-55-33-5--------------------------------------|
E|------------11-33-------------------------------------------|

Verse 8x (she said....)
e|------------------------------------------------------------|
B|------------------------------------------------------------|
G|3-3333-------5/7--------------------------------------------|
D|3-3333--33/5-5/7--------------------------------------------|
A|1-1111--33/5-3/5--------------------------------------------|
E|--------11/3------------------------------------------------|

Pre-chorus 2x 1st time 2nd time (no p.m)
e|------------------------------|----------|-----------------------------------|
B|------------------------------|----------|-----------------------------------|
G|33333333----------------------|88888888--|-8--8-8-8~~------------------------|
D|33333333--33333333--55555555--|88888888--|-8--8-8-8~~------------------------|
A|11111111--33333333--55555555--|66666666--|-6--6-6-6~~------------------------|
E|----------11111111--33333333--|----------|-----------------------------------|
pm......................................

Chorus 2x (undefined strumming) (second time hold out last note)
e|---------------------------------------------------------------------------|
B|---------------------------------------------------------------------------|
G|3-------8------------------------------------------------------------------|
D|3--3--5-8------------------------------------------------------------------|
A|1--3--5-6------------------------------------------------------------------|
E|---1--3--------------------------------------------------------------------|

After little bass riff
intro 4x (a little bit faster, and a little more slidding)
verse 8x
Pre-chorus 2x
Chorus 2x

Bridge (undefined strumming)
1st 2nd 3rd (repeat 1st and second)
e|------------|----------|--------|----------------------------------------------|
B|------------|----------|--------|----------------------------------------------|
G|----5/8-----|----5-----|-3------|----------------------------------------------|
D|-5--5/8-----|-5--5--3--|-3-3-5--|----------------------------------------------|
A|-5--3/6-----|-5--3--3--|-1-3-5--|----------------------------------------------|
E|-3----------|-3-----1--|---1-3--|----------------------------------------------|

pre-ending 2x 1st time 2nd time (no p.m)
e|------------------------------|----------|-----------------------------------|
B|------------------------------|----------|-----------------------------------|
G|33333333----------------------|88888888--|-8--8-8-8~~------------------------|
D|33333333--33333333--55555555--|88888888--|-8--8-8-8~~------------------------|
A|11111111--33333333--55555555--|66666666--|-6--6-6-6~~------------------------|
E|----------11111111--33333333--|----------|-----------------------------------|
pm......................................


rest a second and go into this ...4x (this part is fast so emphasize the slides)
(also go back from the last note to the 1st quickly when repeating)
e|---------------------------------------------------------------------------|
B|---------------------------------------------------------------------------|
G|-3-3333---------5/77-------------------------------------------------------|
D|-3-3333--33/5-5-5/77-------------------------------------------------------|
A|-1-1111--33/5-5-3/55-------------------------------------------------------|
E|---------11/3-3------------------------------------------------------------|

ending verse 2x
e|-----------------------------------------------------|
B|-----------------------------------------------------|
G|-3~3~3~3~3~3~3~3x------------------------------------|
D|-3~3~3~3~3~3~3~3x------------------------------------|
A|-1~1~1~1~1~1~1~1x------------------------------------|
E|-----------------------------------------------------|


rest a second and again go into this ...4x lats time end fast
e|------------------------------------------|---------------------------------|
B|------------------------------------------|---------------------------------|
G|-3-3333---------5/77----------------------|-3-3333---------5/7-7x-----------|
D|-3-3333--33/5-5-5/77----------------------|-3-3333--33/5-5-5/7-7x-----------|
A|-1-1111--33/5-5-3/55----------------------|-1-1111--33/5-5-3/5-5x-----------|
E|---------11/3-3---------------------------|---------11/3-3------------------|


thats it, thanks for looking at this tab. this sounds right to me.
any way for any thing email me at jeffo@email.com

Copyrights
Author: ?
Composer: ?
Publisher: ?
More details
Language: English

Reactions

CommonCrawl [Bot]

Follow Muzikum