Upo

Upo
Godless Acoustic (Guitar tab)

BAND: UPO
SONG: Godless
TAB: el sancco (sancco@hotmail.com)

This is a rather cool song, so here is a rather cool tab for it :P.
If you want to use this tab for your own site or whatever, just
email me and i will track you down and kill you... or then again I
might just let you use it. Either way, rock on peoples.



INTRO:
------

E|-0-----0-0----0--3------3---|----------------------------|
B|-3/6-6-6-6----6--6------6-6-|-6----6--6----------------0-|
G|-2/5-5---5----5--5---5--5-5-|-5----5-------------------0-|
D|-0---------------3---3--3-3-|-X----X----0----------------|
A|-0---------------3---3----3-|-3----3----0-3/5-5-5-5-7----|
D|----------------------------|-------------3/5-5-5-5-7----|

E|-0---0--0----0-------3------|-----------------------------|
B|-3/6-6--6----6---6---6--6-6-|-6----6--6-------------------|
G|-2/5-5--5----5---5---5--5-5-|-5----5----------------------|
D|-0------0--0---0-3---3--3-0-|(3)---3----0-----------3-----|
A|-0-------------0-3---3--3-0-|-3----3----0-3/5-5-5-X-3-3-0-|
D|----------------------------|-------------3/5-5-5-X-3-3-0-|



VERSE:
------

E|-0-----0-0----0--3------3---|----------------------------|
B|-3/6-6-6-6----6--6------6-6-|-6----6--6----------------0-|
G|-2/5-5---5----5--5---5--5-5-|-5----5-------------------0-|
D|-0---------------3---3--3-3-|-X----X----0----------------|
A|-0---------------3---3----3-|-3----3----0-3/5-5-5-5-7----|
D|----------------------------|-------------3/5-5-5-5-7----|

E|-0---0--0----0-------3------|-----------------------------|
B|-3/6-6--6----6---6---6--6-6-|-6----6--6-------------------|
G|-2/5-5--5----5---5---5--5-5-|-5----5----------------------|
D|-0------0--0---0-3---3--3-0-|(3)---3----0-----------3-----|
A|-0-------------0-3---3--3-0-|-3----3----0-3/5-5-5-X-3-3-0-|
D|----------------------------|-------------3/5-5-5-X-3-3-0-|

E|-0-----0-0----0--3------3---|----------------------------|
B|-3/6-6-6-6----6--6------6-6-|-6----6--6----------------0-|
G|-2/5-5---5----5--5---5--5-5-|-5----5-------------------0-|
D|-0---------------3---3--3-3-|-X----X----0----------------|
A|-0---------------3---3----3-|-3----3----0-3/5-5-5-5-7----|
D|----------------------------|-------------3/5-5-5-5-7----|



PRE-CHORUS:
-----------

E|-0---0--0---0---------------|----------------------------|
B|-3/6-6--6---6---6----6--6---|----6--6--------------------|
G|-2/5-5--5---5---5----5--5---|-5-----5--5-----------------|
D|-0------0-----X-3----3--3-0-|-X-----X--3-0---------------|
A|----------------3----3--3-0-|-3-----3--3-0-3/5-5-5-X-7---|
D|----------------------------|--------------3/5-5-5-X-7---|



CHORUS:
-------

E|---------------------------|---------------------------|
B|-3-------3--------6----6---|---------------------------|
G|-2-------2--------5----5-0-|-5-------------------------|
D|-0-------0-0-3----3----3-0-|-5------5-0-3/5-5-5-5-3----|
A|-0---------0-3---------3-0-|-3------3-0-3/5-5-5-5-3--0-|
D|-0-----------3-----------0-|----------0-3/5-5-5-5-3--0-|

E|---------------------------|---------------------------|
B|-3-------3---6----6--------|---------------------------|
G|-2-------2---5----5----5---|-5------5------------------|
D|-0-------0-0-3----3----3-0-|-5------5-0-3/5-5-5-5-7--0-|
A|-0---------0-3----3----3-0-|-3------3-0-3/5-5-5-5-7--0-|
D|-0-----------3-------------|----------0-3/5-5-5-5-7--0-|

E|----------------------------|---------------------------|
B|-3-------3----------6---6---|---------------------------|
G|-2-------2----------5---5---|-5-------------------------|
D|-0-------0-0-3----3-3---3-0-|-5------5-0-3/5-5-5-5-3----|
A|-0---------0-3----3-----3-0-|-3------3-0-3/5-5-5-5-3--0-|
D|-0-----------3----3-------0-|----------0-3/5-5-5-5-3--0-|

E|---------------------------|-----------------------------|
B|-3-------3---6----6--------|-----------------------------|
G|-2-------2---5----5----5---|-----------------------------|
D|-0-------0-0-3----3----3-0-|-5--5-------------------3--0-|
A|-0---------0-3----3----3-0-|-5--5-------------------3--0-|
D|-0-----------3-------------|-5--5-------------------3--0-|



POST-CHORUS:
------------

E|------0-------------0--------|------0----------------------|
B|------------6-------------6--|------------6----------------|
G|----5-----5-------5-----5----|----5-----5------------------|
D|-0-------------3-------------|-----------------------------|
A|-----------------------------|-3--------------3/5-5--5-7---|
D|-----------------------------|--------------0-3/5-5--5-7---|

E|------0-------------0--------|------0----------------------|
B|------------6-------------6--|------------6----------------|
G|----5-----5-------5-----5----|----5-----5------------------|
D|-0-------------3-------------|-----------------------------|
A|-----------------------------|-3--------------3/5-5-5-5-3--|
D|-----------------------------|--------------0-3/5-5-5-5-3--|



VERSE: - Same as above.
------



CHORUS: - Same as above.
-------



POST-CHORUS:
------------

E|------0-----------3----3--|------0---------------------|
B|----------6-------6----6--|------------6---------------|
G|----5-----------5---------|----5-----5-----------------|
D|-0-----------3------------|--------------0-3/5-5-5-5-3-|
A|--------------------------|-3------------0-3/5-5-5-5-3-|
D|--------------------------|--------------0-3/5-5-5-5-3-|

E|------0-----------3----3--|------0---------------------|
B|----------6-------6----6--|------------6---------------|
G|----5-----------5---------|----5-----5-----------------|
D|-0-----------3------------|--------------7-5---5-3-----|
A|--------------------------|-3------------7-5---5-3-----|
D|--------------------------|--------------7-5---5-3-----|



BRIDGE:
-------

E|------0------------0-------|------0------------0-------|
B|-----------6-----5------6--|-----------6------------6--|
G|----5----------------------|----5------------5---------| PLAY
D|-0------------3------------|---------------------------| x4
A|---------------------------|-3-------------------------|
D|---------------------------|--------------5------------|



CHORUS: - Same as above.
-------



POST-CHORUS:
------------

E|------0-------------0--------|------0----------------------|
B|------------6-------------6--|------------6----------------|
G|----5-----5-------5-----5----|----5-----5------------------|
D|-0-------------3-------------|-----------------------------|
A|-----------------------------|-3--------------3/5-5--5-7---|
D|-----------------------------|--------------0-3/5-5--5-7---|

E|------0-------------0--------|------0----------------------|
B|------------6-------------6--|------------6----------------|
G|----5-----5-------5-----5----|----5-----5------------------|
D|-0-------------3-------------|-----------------------------|
A|-----------------------------|-3--------------3/5-5-5-5-3--|
D|-----------------------------|--------------0-3/5-5-5-5-3--|



OUTRO:
------

E|------0------------0---------|------0---------------0---------|
B|-----------6-----------6-----|----------6---------------6-----|
G|----5------------5---------5-|----5---------5-----5---------5-|
D|-0------------3----------3---|------------------0---------0---|
A|-----------------------------|-3----------3-------------------|
D|-----------------------------|----------------5---------------|

E|------0--------------0---------|------0-----------------------|
B|----------6--------5-----6-----|----------6-------------------|
G|----5---------5--------------5-|----5-------5-----------------|
D|-0----------0---3----------3---|--------------0-3/5-----------|
A|-------------------------------|-3--------------3/5-5-5-5-3---|
D|-------------------------------|----------------3/5-5-5-5-3---|




---------------------------------------------
Transcribed By SANCCO (sancco@hotmail.com)
---------------------------------------------

OptimusPrime

Submitted by OptimusPrime at Thu 14 Aug, 2003 7:37 pm

Author: ?
Composer: ?
Publisher: ?
Language: English

Reactions

CommonCrawl [Bot]

Follow Muzikum