Tankcsapda
A 3 Gracia (Guitar tab)

----------------------------
Tankcsapda
A 3 gr�cia

Ha Zajt Akartok
----------------------------


Intro:

----------------------------------------------------------------------------------------------------------------
----------------------------------------------------------------------------------------------------------------
----------------------------------------------------------------------------------------------------------------
---x-x1010---x-x1010---x-x1010---x-x1010------------------------------------------------------------------------
---x-x1010---x-x1010---x-x1010---x-x1010------------------------------------------------------------------------
---x-x-8-8---x-x-8-8---x-x-8-8---x-x-8-8------------------------------------------------------------------------

Verse:

----------------------------------------------------------------------------------------------------------------
----------------------------------------------------------------------------------------------------------------
----------------------------------------------------------------------------------------------------------------
---x-x1010---x-x1010--3----3---3-3---5----5---5-5---------------------------------------------------------------
---x-x1010---x-x1010--3----3---3-3---5----5---5-5---------------------------------------------------------------
---x-x-8-8---x-x-8-8--1----1---1-1---3----3---3-3---------------------------------------------------------------
(4x)

----------------------------------------------------------------------------------------------------------------
----------------------------------------------------------------------------------------------------------------
----------------------------------------------------------------------------------------------------------------
---7-7-7-7-3-3-10-10-10--8-10-10-10-10--8-10-10-10-10-----------------------------------------------------------
---7-7-7-7-3-3-10-10-10--8-10-10-10-10--8-10-10-10-10-----------------------------------------------------------
---5-5-5-5-1-1--8--8--8--6--8--8--8--8--6--8--8--8--8-----------------------------------------------------------
(2x)

----------------------------------------------------------------------------------------------------------------
----------------------------------------------------------------------------------------------------------------
----------------------------------------------------------------------------------------------------------------
---x-x1010---x-x1010--3----3---3-3---5----5---5-5---------------------------------------------------------------
---x-x1010---x-x1010--3----3---3-3---5----5---5-5---------------------------------------------------------------
---x-x-8-8---x-x-8-8--1----1---1-1---3----3---3-3---------------------------------------------------------------
(2x)

----------------------------------------------------------------------------------------------------------------
----------------------------------------------------------------------------------------------------------------
----------------------------------------------------------------------------------------------------------------
--10-10-10-10-10-10-10-10-10-10--6--6--6--6--6--8--8--8--8--8---------------------------------------------------
--10-10-10-10-10-10-10-10-10-10--6--6--6--6--6--8--8--8--8--8---------------------------------------------------
---8--8--8--8--8--8--8--8--8--8--4--4--4--4--4--6--6--6--6--6---------------------------------------------------
(2x)

----------------------------------------------------------------------------------------------------------------
----------------------------------------------------------------------------------------------------------------
----------------------------------------------------------------------------------------------------------------
---7-7-7-7-3-3-10-10-10--8-10-10-10-10--8-10-10-10-10-----------------------------------------------------------
---7-7-7-7-3-3-10-10-10--8-10-10-10-10--8-10-10-10-10-----------------------------------------------------------
---5-5-5-5-1-1--8--8--8--6--8--8--8--8--6--8--8--8--8-----------------------------------------------------------
(3x)

Chorus:

----------------------------------------------------------------------------------------------------------------
----------------------------------------------------------------------------------------------------------------
----------------------------------------------------------------------------------------------------------------
---7-7-7-7-10-10-10-10-10-8-10-10-10-10-8-10-10-10-10-x-x-x-x-x-x-x---------------------------------------------
---7-7-7-7-10-10-10-10-10-8-10-10-10-10-8-10-10-10-10-x-x-x-x-x-x-x---------------------------------------------
---5-5-5-5--8--8--8--8--8-6--8--8--8--8-6--8--8--8--8-x-x-x-x-x-x-x---------------------------------------------
(2x)

Solo:

--------------------------------------------------------------------------------4---------------------------------
-----------1--3----------1--3----------1--3-----3~----------0p3~-----------3-3-----6--1p3--1-1~1p3--1-1~-1p3-1-1~-
---3--------------3-------------3-------------3-------------------------------------------------------------------
------------------------------------------------------------------------------------------------------------------
------------------------------------------------------------------------------------------------------------------
------------------------------------------------------------------------------------------------------------------

----------------5p5--3p0~---3p3-2---------------------------------------------------------------------------------
---1p3-1-1~------------------------3~----3p3----1-----------------------------------------------------------------
----------------------------------------------------2---0p2~------------------------------------------------------
------------------------------------------------------------------------------------------------------------------
------------------------------------------------------------------------------------------------------------------
------------------------------------------------------------------------------------------------------------------

Chorus:

----------------------------------------------------------------------------------------------------------------
----------------------------------------------------------------------------------------------------------------
----------------------------------------------------------------------------------------------------------------
---7-7-7-7-3-3-10-10-10--8-10-10-10-10--8-10-10-10-10-----------------------------------------------------------
---7-7-7-7-3-3-10-10-10--8-10-10-10-10--8-10-10-10-10-----------------------------------------------------------
---5-5-5-5-1-1--8--8--8--6--8--8--8--8--6--8--8--8--8-----------------------------------------------------------
(4x)

----------------------------------------------------------------------------------------------------------------
----------------------------------------------------------------------------------------------------------------
----------------------------------------------------------------------------------------------------------------
---7-7-7-7-10-10-10-10-10-8-10-10-10-10-8-10-10-10-10-x-x-x-x-x-x-x---------------------------------------------
---7-7-7-7-10-10-10-10-10-8-10-10-10-10-8-10-10-10-10-x-x-x-x-x-x-x---------------------------------------------
---5-5-5-5--8--8--8--8--8-6--8--8--8--8-6--8--8--8--8-x-x-x-x-x-x-x---------------------------------------------
(2x)


Outro:

----------------------------------------------------------------------------------------------------------------
----------------------------------------------------------------------------------------------------------------
----------------------------------------------------------------------------------------------------------------
--11------x-x-x-x-x-x-11-------x-x-x-x-x-x-x-11-------x-x-x-x-x-x-x--11-11--------------------------------------
---9------x-x-x-x-x-x--9-------x-x-x-x-x-x-x--9-------x-x-x-x-x-x-x---9--9--------------------------------------
----------------------------------------------------------------------------------------------------------------

Copyrights
Author: ?
Composer: ?
Publisher: ?

Reactions

CommonCrawl [Bot]

Follow Muzikum