Thrice
T & C (Bass tab)

-------------------------------------------------------------------------------
T&C - Thrice
--------------------------------------------------------------------------------

Tabbed By: Ryan (chlorinatethegenepool@hotmail.com)



Intro
G|--------------------------------------------------------------
D|6~-------6~---------------------------------------------------
A|4~---7---4~--7----------44444444444444444444444444444444------
E|-----5-------5------------------------------------------555555

G{-------------------------------------------------------------
D{--------67-7777777-97676-6-----------------------------------
A{------67----------------7-7-44444444444444444444444444444444-
E{555555------------------------------------------------------55

G{--------------------------------------------------------------
D{------------67-7777777-7---7----------------------------------
A{----------67--------------7-7---------------------------------
E{5555555555--------------55---5--------------------------------


Verse
G|-------------------------------------------------------------
D|-------------------------------------------------------------
A|44-444-4-44-444----------------------------------------------
E|---------------55-555-5-55-555-77-777-7-77-777-44-444-4-44-444


Chorus
G|-------------------------------------------------------------
D|-------------------------------------------------------------
A|44-467-77-7777-----------------------------------------------
E|--------------55-5557-77-7777--------------------------------

Copyrights
Author: ?
Composer: ?
Publisher: ?
More details
Language: English

Reactions

CommonCrawl [Bot]

Follow Muzikum