Tree
X-communicated Ver 2 (Guitar tab)

#


From DOleary977@aol.com Mon May 12 14:08:02 1997
Date: Sun, 4 May 1997 23:12:07 -0400 (EDT)
From: DOleary977@aol.com
To: guitar@olga.net
Subject: Tree "X-Communicated"

Tree
"X-Communicated"
Off of "Downsizing the American Dream"


Dropped-D Tuning
--------------------------------------------------------------------------
--------------------------------------------------------------------------
--------------------------------------------------------------------------
----5----3----6---1----------------------------------------------------
----5----3----6---1----------------------------------------------------
----5----3----6---1------------2---0---2---0---2---0---0---0---2
Intro/Ending verses

------------------------------------------------------------------------------
-----------------------------
------------------------------------------------------------------------------
-----------------------------
------------------------------------------------------------------------------
-----------------------------
-----5---5---5---5-------3---3---3---3---0---3-------5---5---5---5----8--8--8-
-0--0--------
-----5---5---5---5-------3---3---3---3---0---3-------5---5---5---5----8--8--8-
-0--0--------
-----5---5---5---5-------3---3---3---3---0---3-------5---5---5---5----8--8--8-
-0--0--------
chorus
^slide

Copyrights
Author: ?
Composer: ?
Publisher: ?
More details
Language: English

Reactions

CommonCrawl [Bot]

Follow Muzikum