Sportfreunde Stiller

Sportfreunde Stiller
Ein Kompliment Ver 3 (Guitar tab)

Ein Kompliment

by Sportfreunde Stiller
from the new album 'die gute Seite'

transcribed by Christian Reindel(creindel@gmx.de)
any questions or corrections- e-mail me

Normal tuning

Intro (clean guitar - play the chords in little variations)
D Am/A
E:|-2-2-2-2-2-2-2-2-2-2-2-2-2-2-2-2-0-0-0-0-0-0-0-0-0-0-0-0-0-0-0-0--|
B:|-3-3-3-3-3-3-3-3-3-3-3-3-3-3-3-3-1-1-1-1-1-1-0-1-1-1-1-0-1-1-1-1--|
G:|-2-2-2-2-2-2-2-2-2-2-2-2-2-2-2-2-2-2-2-2-2-2-2-2-2-2-2-2-2-2-2-2--|
D:|-0-0-0-0-0-0-0-0-0-0-0-0-0-0-0-0-2-2-2-2-2-2-2-2-2-2-2-2-2-2-2-2--|
A:|---------------------------------0-0-0-0-0-0-0-0-0-0-0-0-0-0-0-0--|
E:|------------------------------------------------------------------|

C Cadd9 Em
E:|-0-0-0-0-0-0-0-0-0-0-0-0-0-0-0-0-------|
B:|-1-1-1-1-1-1-1-1-1-1-1-1-3-3-3-3--0----|
G:|-0-0-0-0-0-0-0-0-0-0-0-0-0-0-0-0--0----|
D:|-2-2-2-2-2-2-2-2-2-2-2-2-2-2-2-2--2----|
A:|-3-3-3-3-3-3-3-3-3-3-3-3-3-3-3-3--2----|
E:|----------------------------------0----|

Rhythm guitar (with distortion)
D Am/A
E:|-2-2-2-2-2-2-2-2-2-2-2-2-2-2-2-2-0-0-0-0-0-0-0-0-0-0-0-0-0-0-0-0--|
B:|-3-3-3-3-3-3-3-3-3-3-3-3-3-3-3-3-1-1-1-1-1-1-0-1-1-1-1-0-1-1-1-1--|
G:|-2-2-2-2-2-2-2-2-2-2-2-2-2-2-2-2-2-2-2-2-2-2-2-2-2-2-2-2-2-2-2-2--|
D:|-0-0-0-0-0-0-0-0-0-0-0-0-0-0-0-0-2-2-2-2-2-2-2-2-2-2-2-2-2-2-2-2--|
A:|---------------------------------0-0-0-0-0-0-0-0-0-0-0-0-0-0-0-0--|
E:|------------------------------------------------------------------|

Lead guitar
E:|------------------------------------------------------------------|
B:|-12--10--8---10-(10)-------------12--10--8---10-(10)--------------|
G:|------------------------------------------------------------------|
D:|------------------------------------------------------------------|
A:|------------------------------------------------------------------|
E:|------------------------------------------------------------------|


Rhythm guitar (with distortion)
C Cadd E
E:|-0-0-0-0-0-0-0-0-0-0-0-0-0-0-0-0----------------------------------|
B:|-1-1-1-1-1-1-1-1-1-1-1-1-3-3-3-3----------------------------------|
G:|-0-0-0-0-0-0-0-0-0-0-0-0-0-0-0-0----------------------------------|
D:|-2-2-2-2-2-2-2-2-2-2-2-2-2-2-2-2----------------------------------|
A:|-3-3-3-3-3-3-3-3-3-3-3-3-3-3-3-3----2-2-----2-2-----2-2-----2-2---|
E:|----------------------------------0-0-0---0-0-0---0-0-0---0-0-0---|


Lead guitar
E:|------------------------------------------------------------------|
B:|-12--10--8---8-(8)------------------8--10--12---5-(5)-------------|
G:|------------------------------------------------------------------|
D:|------------------------------------------------------------------|
A:|------------------------------------------------------------------|
E:|------------------------------------------------------------------|

Verse 1 (clean guitar)

D Am
Wenn man so will bist du das Ziel einer langen Reise
C Em
die Perfektion der besten Art und Weise in stillen Momenten leise
D Am C Em
die Schaumkrone der Woge der Begeisterung bergauf mein Antrieb und Schwung


Chorus 1 (distorted guitar)

D Am C E
Ich wollte dir nur mal eben sagen dass du das Gr��te f�r mich bist
D Am C E
und sicher gehn ob du denn das selbe f�r mich f�hlst - f�r mich f�hlst


Verse 2 (clean guitar)

D Am C
Wenn man so will bist du meine chill-out area meine Feiertage in jedem Jahr
Em
meine S��warenabteilung im Supermarkt
D Am C
die L�sung wenn mal was hakt so wertvoll das man es sich gerne auch spart
Em
und so sch�n das man nie darauf verzichten mag


Chorus 2 (distorted guitar) with lead guitar

D Am C E
Ich wollte dir nur mal eben sagen dass du das Gr��te f�r mich bist
D Am C E
und sicher gehn ob du den das selbe f�r mich f�hlst - f�r mich f�hlst

Keybord solo

Rhythm-guitar (with distortion)
E:|------------------------------------------------------------------|
B:|------------------------------------------------------------------|
G:|------------------------------------------------------------------|
D:|-7-7-7-7-7-7-7-7-7-7-7-7-7-7-7-7-2-2-2-2-2-2-2-2-2-2-2-2-2-2-2-2--|
A:|-5-5-5-5-5-5-5-5-5-5-5-5-5-5-5-5-0-0-0-0-0-0-0-0-0-0-0-0-0-0-0-0--|
E:|------------------------------------------------------------------|

E:|------------------------------------------------------------------|
B:|------------------------------------------------------------------|
G:|------------------------------------------------------------------|
D:|-5-5-5-5-5-5-5-5-5-5-5-5-5-5-5-5-9-9-9-9-9-9-9-9-9-9-9-9-9-9-9-9--|
A:|-3-3-3-3-3-3-3-3-3-3-3-3-3-3-3-3-7-7-7-7-7-7-7-7-7-7-7-7-7-7-7-7--|
E:|------------------------------------------------------------------|


E:|------------------------------------------------------------------|
B:|------------------------------------------------------------------|
G:|------------------------------------------------------------------|
D:|-7-7---7--7-7---7--7-7---7-7-7--2-2---2--2-2---2--2-2---2-2-2-----|
A:|-5-5---5--5-5---5--5-5---5-5-5--0-0---0--0-0---0--0-0---0-0-0-----|
E:|------------------------------------------------------------------|

E:|------------------------------------------------------------------|
B:|------------------------------------------------------------------|
G:|------------------------------------------------------------------|
D:|-5-5---5--5-5---5--5-5---5-5-5------------------------------------|
A:|-3-3---3--3-3---3--3-3---3-3-3--2-2-2-2-2-2-2-2-2-2-2-2-2-2-2-2---|
E:|--------------------------------0-0-0-0-0-0-0-0-0-0-0-0-0-0-0-0---|


Chorus 3 (distorted guitar) with lead guitar

D Am C E
Ich wollte dir nur mal eben sagen dass du das Gr��te f�r mich bist
D Am C E
und sicher gehn ob du den das selbe f�r mich f�hlst - f�r mich f�hlst

D

OptimusPrime

Submitted by OptimusPrime at Thu 14 Aug, 2003 7:11 pm

Author: ?
Composer: ?
Publisher: ?
Language: English

Reactions

CommonCrawl [Bot]

Follow Muzikum