Sportfreunde Stiller

Sportfreunde Stiller
Ein Kompliment Ver 3 (Bass tab)

Band: Sportfreunde Stiller
Song: Ein Kompliment
Album: Die Gute Seite
Instrument: Bass
Tabbed by Waschbaer on 07-11-2002
Revised on 25-11-2002

~ = let ring
/ = slide up
\ = slide down

parts:
======

intro:
G|--------|--------|--------|--------|--------|--------|--------|--------|
D|--------|--------|--------|--------|--------|--------|--------|--------|
A|--------|--------|--------|--------|--------|--------|7-------|------/\|
E|--------|--------|--------|--------|--------|--------|--------|--------|
1 2 3 4 1 2 3 4 1 2 3 4 1 2 3 4 1 2 3 4 1 2 3 4 1 2 3 4 1 2 3 4

chorus–lick1:
G|----------------|----------------|----------------|----------------|
D|----4---4-4-----|----4---4-4-5-5-|7-7-7-----7---7-|--7-------------|
A|5-5---5-----5-5-|--5---5---------|------7-7---7---|----7-7-7-7-5-5-|
E|----------------|----------------|----------------|----------------|
1 + 2 + 3 + 4 + 1 + 2 + 3 + 4 + 1 + 2 + 3 + 4 + 1 + 2 + 3 + 4 +

G|----------------|----------------|----------------|----------------|
D|----2---2-2-----|----2---2-2-----|----------------|----------------|
A|3-3---3-----3-3-|--3---3-----3-3-|----------------|------------2---|
E|----------------|----------------|0-0---0-0-0---0-|0-0---0-3-------|
1 + 2 + 3 + 4 + 1 + 2 + 3 + 4 + 1 + 2 + 3 + 4 + 1 + 2 + 3 + 4 +

chorus-lick2:
G| --|----------------|----------------|
D| Like chorus-lick1 but ---|----------------|----------------|
A| with this last 2 bars: -|----------------|----------------|
E| ------|0-0---0-0-0---0-|0-0-0-0-0-0-0-0-|
1 + 2 + 3 + 4 + 1 + 2 + 3 + 4 + 1 + 2 + 3 + 4 + 1 + 2 + 3 + 4 +

verse1–lick2:
G|--------|--------|--------|--------|--------|--------|--------|--------|
D|--------|--------|7-------|--------|--------|--------|--------|--------|
A|5-------|--------|--------|--------|--------|--------|7-------|------/\|
E|--------|--------|--------|--------|8-------|--------|--------|--------|
1 2 3 4 1 2 3 4 1 2 3 4 1 2 3 4 1 2 3 4 1 2 3 4 1 2 3 4 1 2 3 4

verse2–lick1:
G|--------|--------|--------|--------|--------|--------|--------|--------|
D|--------|--------|7-------|--------|--------|--------|--------|--------|
A|5-------|--------|--------|--------|--------|--------|7-------|--------|
E|--------|--------|--------|--------|8-------|--------|--------|--------|
1 2 3 4 1 2 3 4 1 2 3 4 1 2 3 4 1 2 3 4 1 2 3 4 1 2 3 4 1 2 3 4

verse2–lick2:
G|- - - - - - - - - - - - - - - - |- - - - - - - - - - - - - - - - |
D|12- 12- 12- - - - - 12- - - 12- |- - 12- - - - - - - - - - - - - |
A|- - - - - - 9 – 9 - - - 9 - - - |- - - - 9 - 9 – 9 – 9 – 10– 10- |
E|- - - - - - - - - - - - - - - - |- - - - - - - - - - - - - - - - |
1 + 2 + 3 + 4 + 1 + 2 + 3 + 4 +

G|- - - - - - - - - - - - - - - - |- - - - - - - - - - - - - - - - |
D|- - - - 14- - - 14- 14- - - - - |- - - - 14- - - 14- 14- 12- 12- |
A|12- 12- - - 12– - - - - 12- 12- |12- 12- - - 12– - - - - - - - - |
E|- - - - - - - - - - - - - - - - |- - - - - - - - - - - - - - - - |
1 + 2 + 3 + 4 + 1 + 2 + 3 + 4 +

G|- - - - 9 ~ - - 9 - 9 - - - - - |- - - - 9 ~ - - 9 - 9 - - - - - |
D|10- 10- - - 10- - - - - 10- 10- |10- 10- - - 10- - - - - 10- 10- |
A|- - - - - - - - - - - - - - - - |- - - - - - - - - - - - - - - - |
E|- - - - - - - - - - - - - - - - |- - - - - - - - - - - - - - - - |
1 + 2 + 3 + 4 + 1 + 2 + 3 + 4 +

G|--------|--------|
D|--------|--------|
A|7-------|------/\|
E|--------|--------|
1 2 3 4 1 2 3 4

bridge–lick1:
G|----------------|----------------|----------------|----------------|
D|----4---4-4-----|--4-----4-4-----|----------------|----------------|
A|5-5---5-----5-5-|----5-5-----5-5-|0-0---0-0-0---0-|--0-0-0-0-0-0-0-|
E|----------------|----------------|----------------|----------------|
1 + 2 + 3 + 4 + 1 + 2 + 3 + 4 + 1 + 2 + 3 + 4 + 1 + 2 + 3 + 4 +

G|----------------|----------------|----------------|----------------|
D|----2---2-2-----|--2-----2-2-----|----------------|----------------|
A|3-3---3-----3-3-|----3-3-----3-3-|----------------|----------------|
E|----------------|----------------|0-0-0-0-0-0-0-0-|0-0-0-0-0-0-0-0-|
1 + 2 + 3 + 4 + 1 + 2 + 3 + 4 + 1 + 2 + 3 + 4 + 1 + 2 + 3 + 4 +

bridge–lick2:
G| -----|----------------|----------------|
D| Like bridge-lick1 but ---|----------------|----------------|
A| with this last 2 bars: -|----------------|------------2---|
E| -----|0-0-0-0-0-0-0-0-|0-0-0-0-3-------|
1 + 2 + 3 + 4 + 1 + 2 + 3 + 4 + 1 + 2 + 3 + 4 + 1 + 2 + 3 + 4 +

outro:
G|--------|---
D|--------|------
A|5-------|---- ...
E|--------|-----
1 2 3 4 1 2 3 4

order:
======
intro
chorus-lick1
chorus-lick2

verse1-part1 – without bass
verse1-lick2
chorus-lick1
chorus-lick2

verse2-lick1
verse2-lick2

chorus-lick1
chorus-lick2
bridge-lick1
bridge-lick2
chorus-lick1
chorus-lick1

outro

================================================================
Thanks to FooFighterFreak and Luckyrock182, I used their tabs to

OptimusPrime

Submitted by OptimusPrime at Thu 14 Aug, 2003 7:11 pm

Author: ?
Composer: ?
Publisher: ?
Language: English

Reactions

CommonCrawl [Bot]

Follow Muzikum