Sportfreunde Stiller

Sportfreunde Stiller
Ein Kompliment Ver 2 (Guitar tab)

Arstist: Sportfreunde Stiller
Album: Die Gute Seite
Tabed by: Chris
Web: www.kata.xdn.de


main riff
e|-------------|-------------|-------------|-----------------|
B|-------------|-------------|-------------|-----------------|
G|-16-14----14-|-16-14----14-|-16-14----12-|-12-14-14/16-----|
A|-------17----|-------17----|-------17----|-------------14--|
D|-------------|-------------|-------------|-----------------|
E|-------------|-------------|-------------|-----------------|

###############################################################
Verse: You can play Chords or Powerchords!

Chours: Play Powerchords!

2. Chours: Play Powerchords! (Guitar 2 plays the main riff)

Breake: Play Powerchords!

3. Chours: Play Powerchords! (Guitar 2 plays the main riff)
###############################################################

(Chords)

D Am C Em

e|--2--|--0--|--0--|-----|
B|--3--|--1--|--1--|-----|
G|--2--|--2--|--0--|--0--|
A|--0--|--2--|--2--|--2--|
D|-----|--0--|--3--|--2--|
E|-----|-----|-----|--0--|


(Powerchords)

D Am C Em

e|-----------|-----------|-----------|-----------|
B|-----------|-----------|-----------|-----------|
G|-----------|-----------|-----------|-----------|
A|--7-7-7-7--|-----------|--5-5-5-5--|--2-2-2-2--|
D|--5-5-5-5--|--7-7-7-7--|--3-3-3-3--|--2-2-2-2--|
E|-----------|--5-5-5-5--|-----------|--0-0-0-0--|

OptimusPrime

Submitted by OptimusPrime at Thu 14 Aug, 2003 7:11 pm

Author: ?
Composer: ?
Publisher: ?
Language: German

Reactions

CommonCrawl [Bot]

Follow Muzikum