Sportfreunde Stiller

Sportfreunde Stiller
Ein Kompliment Ver 2 (Bass tab)

Song : Ein Kompliment
Band : Sportfreunde Stiller
Album : Die Gute Seite
Tabbed By : Lucky (Lucky.Bassiste@wanadoo.fr)


Riff 1
G:---------------0222-22-2-2-220-------------------------------
D:-00404404040442----2--2-2-2----------------------------------
A:--------------------------------3-33-3-3-330-----------------
E:------------------------------33-3--3-3-3----00-000-000-0000-

Riff 2
G:-----2~--5~----------
D:-0~----------2~--5/1-
A:---------------------
E:---------------------

Riff 3
G:-777--7-7---------9--9-9--9-997-----9--99--9--9--997----
D:----44-4-444557-77-77-7--7-7----1010-10--10-10-10-------
A:--------------------------------------------------------
E:-----------------------------------------------------0~-

Riff 1 X 2
No bass on the first part of the verse
Riff 2 X 1
Riff 1 X 2
Riff 2 X 1
Riff 3 X 1
Riff 1 X 6

End on
G:---
D:---
A:---
E:-0-

OptimusPrime

Submitted by OptimusPrime at Thu 14 Aug, 2003 7:11 pm

Author: ?
Composer: ?
Publisher: ?
Language: English

Reactions

CommonCrawl [Bot]

Follow Muzikum