Sportfreunde Stiller

Sportfreunde Stiller
Ein Kompliment (Bass tab)

--------------------------------------------------------------------------------------------------------------
Sportfreunde Stiller - Ein Kompliment
--------------------------------------------------------------------------------------------------------------


Sounds quite well. Altough some parts might not be 100% exact because you can hardly
hear the bass in some parts.



Standard Tuning (E, A, D, G)



Chorus:
(play twice)
G|---------|--------------------------------------------------*---*---------------
D|---------|*------4---4-4----*-----4---4-4-5-5-7-7-7-7---7----7---7-------------- * = don't let ring
A|--/-9-\--|*--5-5---5--------5---5---5-----------------7--------------7-7-7-5-5--
E|---------|----------------------------------------------------------------------

---------------------------------------------------------------|
--------------------------------------------------------------*|
--3-3-3-3-3-3-3-3-3-3-3-3-3-3-3-3---*-------*-------*------*--*|
----------------------------------0-0---0-0-0---0-0-0--0-0-0---|


1st Verse:

G|----------|----------------------------------|
D|--guitar--|----------------------------------|
A|---only---|--5~-------0~-------3~------------|
E|----------|-----------------------------0~---|


2nd Verse:

G|----------|--------------------------------------------------------------------------------------------
D|--guitar--|--12-12-12-12---12---12---------------------------14----14-14----14------------14-14-12-12--
A|---only---|--------------9----9------9-9-9-10-10-11-11-12-12----12-------12------12-12-12--------------
E|----------|--------------------------------------------------------------------------------------------

------------------------------------------------------|
--10-10-10-10-10-10-10-10-10-10-10-10-10-10-10-10-----|
------------------------------------------------------|
--------------------------------------------------0~--|


Bridge:

(Play twice)
G|---------------------*--------------------------*---*------------
D|*------4---4-4---*---4-----4-4----7-7-7-7---7---7---7---7---7----
A|*--5-5---5-------5-------5----------------7---------------7------
E|-----------------------------------------------------------------

------*----------*----------*----------*------------*----------*----------*----------*---|
--10-10---10-10-10---10-10-10---10-10-10---10-/-14-14---14-14-14---14-14-14---14-14-14--*|
----------------------------------------------------------------------------------------*|
-----------------------------------------------------------------------------------------|


Order:
~~~~~~
- [Intro - guitar]
- Chorus
- 1st Verse
- Chorus
- 2nd Verse
- Chorus
- Bridge
- Chorus

OptimusPrime

Submitted by OptimusPrime at Thu 14 Aug, 2003 7:11 pm

Author: Peter S. Brugger
Composer: ?
Publisher: Universal Music Domestic Division
Published in: 2002
Language: English

Reactions

CommonCrawl [Bot]

Follow Muzikum