Sportfreunde Stiller

Sportfreunde Stiller
(Guitar tab)

Standard Tuning (EADGBe)

Chords are G D Am C
3 x x x
2 x 0 3
0 0 2 2
0 2 2 0
0 3 1 1
3 2 0 0

Powerchords G5 D5 A5 C5
x x x x
x x x x
x 7 x 5
5 7 7 5
5 5 7 3
3 x 5 x

Intro/Verse/Chorus

G
/\ /\ \/ \/ /\\/
e--3---3---3---3---3-3-
B--0---0---0---0---0-0-
G--0---0---0---0---0-0-
D--0---0---0---0---0-0-
A--2---2---2---2---2-2-
E--3---3---3---3---3-3-

D
/\ /\ \/ \/ /\\/
e--2---2---0---0---2-2-
B--3---3---3---3---3-3-
G--2---2---2---2---2-2-
D--0---0---0---0---0-0-
A----------------------
E----------------------

Am
/\ /\ \/ \/ /\\/
e--0---0---0---0---0-0-
B--1---1---0---0---1-1-
G--2---2---2---2---2-2-
D--2---2---2---2---2-2-
A--0---0---0---0---0-0-
E----------------------

C
/\ /\ \/ \/ /\\/
e--0---0---0---0---0-0-
B--1---1---3---3---1-1-
G--0---0---0---0---0-0-
D--2---2---2---2---2-2-
A--3---3---3---3---3-3-
E----------------------

In intro and verse its played clean, and in the chorus its played with a delayed distortion.
Or you can played with a second, distorted guitar that plays powerchords.


After the chorus and during the last chorus its played something like this

2x
e-7----5----3-5---|-7----5----3-5-3---|



Interlude
Both Guitars play this, the distorted guitar with powerchord

G D
/\ /\ \/ \/ /\\/ \/
e--3---3---3---3---3-3-2-
B--0---0---0---0---0-0-3-
G--0---0---0---0---0-0-2-
D--0---0---0---0---0-0-0-
A--2---2---2---2---2-2---
E--3---3---3---3---3-3---

Am C
/\ /\ \/ \/ /\\/ \/
e--0---0---0---0---0-0-0-
B--1---1---0---0---1-1-1-
G--2---2---2---2---2-2-0-
D--2---2---2---2---2-2-2-
A--0---0---0---0---0-0-3-
E------------------------

OptimusPrime

Submitted by OptimusPrime at Thu 14 Aug, 2003 7:11 pm

Author: ?
Composer: ?
Publisher: ?
Language: English

Reactions

CommonCrawl [Bot]

Follow Muzikum