Stuck Mojo

Stuck Mojo
Animal (Guitar tab)

Band: Stuck Mojo
Song: Animal
Album: Pig Walk
Tabbed by: DEZ eendjes_voeren@hotmail.com

Intro/Pre chorus
e------------------------------------------------------
B------------------------------------------------------
G------------------------------------------------------
D-2-2-2-2--5-5-5-5--8-8-8-8--3-3-3-3-play----->--2-2-2-2
A-2-2-2-2--5-5-5-5--8-8-8-8--3-3-3-3-these on----2-2-2-2
D-0-0-0-0--3-3-3-3--6-6-6-6--1-1-1-1-the rythym--0-0-0-0

Verse
e---------------- e----------------
B---------------- B----------------
G--------7------- G--------5-------
D-2-2-2--7--2-2-2 D-2-2-2--5--2-2-2
A-2-2-2--5--2-2-2 A-2-2-2--3--2-2-2
D-0-0-0-----0-0-0 4 times then D-0-0-0-----0-0-0
pm..... ..... pm..... .....

Chorus
e--------------
B--------------
G--------------
D-2-2--3-3--2-2 (5)
A-2-2--3-3--2-2 (5)
D-0-0--1-1--0-0 (3) play this note a few times. Listen and you wil hear it!

Bridge
e--------------------------
B--------------------------
G--------------------------
D-----------------4-4-4-4-4
A-----------------4-4-4-4-4
D-3-0-3-0-3-0-3-2-2-2-2-2-2

That's all! Play this loud!

Greetz DEZ

OptimusPrime

Submitted by OptimusPrime at Thu 14 Aug, 2003 7:15 pm

Author: ?
Composer: ?
Publisher: ?
Language: English
Available on: Pigwalk (1996)

Reactions

CommonCrawl [Bot]

Follow Muzikum