Reminition

Reminition
Everythings Gonna Be Alright (Guitar tab)

song: everythings gonna be alriht
artist: reminition
e-mail: reminition@hotmail.com

Verse 1

e|------------------------------------------------------------------------|
b|------------------------------------------------------------------------|
g|--6-6-6-6-6-6-6-6--5-5-5-5-----------6-6-6-6-6-6-6-6--5-5-5-5--8-8-8-8--|
d|--6-6-6-6-6-6-6-6--5-5-5-5--8-8-8-8--6-6-6-6-6-6-6-6--5-5-5-5--8-8-8-8--|
a|--4-4-4-4-4-4-4-4--3-3-3-3--8-8-8-8--4-4-4-4-4-4-4-4--3-3-3-3--6-6-6-6--|
e|----------------------------6-6-6-6-------------------------------------|

Verse 2
x3
e|-------------------------------------|------------------------------------|
b|-------------------------------------|------------------------------------|
g|--6-6-6-6-6-6-6-6--5-5-5-5-----------|--6-6-6-6-6-6-6-6--5-5-5-5-5-5-5-5--|
d|--6-6-6-6-6-6-6-6--5-5-5-5--8-8-8-8--|--6-6-6-6-6-6-6-6--5-5-5-5-5-5-5-5--|
a|--4-4-4-4-4-4-4-4--3-3-3-3--8-8-8-8--|--4-4-4-4-4-4-4-4--3-3-3-3-3-3-3-3--|
e|----------------------------6-6-6-6--|------------------------------------|

Chorus

e|-------------------------------------|
b|-------------------------------------|
g|--6-6-6-6-6-6-6-6--3-3-3-3-----------|
d|--6-6-6-6-6-6-6-6--3-3-3-3--4-4-4-4--|
a|--4-4-4-4-4-4-4-4--1-1-1-1--4-4-4-4--|
e|----------------------------2-2-2-2--|

Interlude

e|-------------------------------------|
b|-------------------------------------|
g|--6-6-6-6-6-6-6-6--5-5-5-5--8-8-8-8--|
d|--6-6-6-6-6-6-6-6--5-5-5-5--8-8-8-8--|
a|--4-4-4-4-4-4-4-4--3-3-3-3--6-6-6-6--|
e|-------------------------------------|

Verse 1 x2
Verse 2
Chorus x4
Verse 1 x2
Verse 2
Chorus x4
Verse 1 x2
Verse 2
Chorus x4
Bass Interlude x2
Interlude x4

OptimusPrime

Submitted by OptimusPrime at Sun 01 Dec, 2002 2:37 pm

Author: ?
Composer: ?
Publisher: ?
Language: English

Reactions

CommonCrawl [Bot]

Follow Muzikum