Reminition

Reminition
Rhythm Of Death (Guitar tab)

song: rhythm of death
Artist: reminition
email: reminition@hotmail.com

Intro/Chorus

e|-------------------------------------------|
b|-------------------------------------------|
g|-------------------------------------------|
d|---3-3-3-3---2-2-2-2---5-5-5-5---4-4-4-4---|
a|---3-3-3-3---2-2-2-2---5-5-5-5---4-4-4-4---|
e|---1-1-1-1---0-0-0-0---3-3-3-3---2-2-2-2---|

verse

e|-------------------------------------------|
b|-------------------------------------------|
g|-------------------------------------------|
d|---3-3-3-3---2-2-2-2---5-5-5-5---4-4-4-4---|
a|---3-3-3-3---2-2-2-2---5-5-5-5---4-4-4-4---|
e|---1-1-1-1---0-0-0-0---3-3-3-3---2-2-2-2---|
p.m.-----------------------------------------

bass intro x2
intro x2
verse x4
chorus x4
verse x4
chorus x4
verse x4

OptimusPrime

Submitted by OptimusPrime at Sun 01 Dec, 2002 2:37 pm

Author: ?
Composer: ?
Publisher: ?

Reactions

CommonCrawl [Bot]

Follow Muzikum