Pleymo
T (Guitar tab)

T.N
Pleymo
Ke�kispasse ?
Tab de crazytom (Nigga nigga sur musikmania)
deathtone@wanadoo.fr

Couplet :
-----------------------------
-----------3-----------------
---4-------------4-------6---
-------4-5-----------4-5-----
---2-------------2-----------
-----------------------------

Pre-couplet :
-------------
-------------
-------------
---4--2--5---
---4--2--5---
---4--2--5---

pre-refrain :
---------------------------
---------------------------
-----------------------4---
---2-4--2-5--2-4--2-2------
---2-4--2-5--2-4--2-2--2---
---2-4--2-5--2-4--2-2------

Refrain :
--------------------------
--------------------------
--------------------------
---2-2--2-4--2-2--4-2-5---
---2-2--2-4--2-2--4-2-5---
---2-2--2-4--2-2--4-2-5---

gtr 2 :
---------------------
---------------------
---6--4-4---6-4-11---
---------------------
---4--2-2---4-2-9----
---------------------

Pont :
-------------------------------
-------------------------------
-------------------------------
---2-2-2-2-2--2----------------
---2-2-2-2-2--2----------------
---2-2-2-2-2--2-2*///5*\\\2*---

------------------------------
----------2--2/3--------------
---4---3------------4--3--0---
------------------------------
------------------------------
------------------------------

Copyrights
Author: ?
Composer: ?
Publisher: ?

Reactions

CommonCrawl [Bot]

Follow Muzikum