Pleymo
K-ra (Guitar tab)

K-ra
Pleymo
(ke�kispasse?)
transcribed by crazytom
deathtone@wanadoo.fr
Intro 1:
---------------
---------------
---------------
---x-x---x-x---
---x-x---x-x---
---x-x---x-x---

Intro 2:
------------------------
------------------------
------------------------
------------------------
------------------------
---0-2-1-0--1-0-0-1-2---

Intro 3:
-------------------------
-------------------------
-------------------------
---0-2-1-0---1-0-0-1-2---
---0-2-1-0---1-0-0-1-2---
---0-2-1-0---1-0-0-1-2---

Pr�-Couplet:
---11---11---11---
---16---16---16---
------------------
------------------
------------------
------------------

Couplet:
-------------------------------------
---13/12/11/10/9/8/7/6/5/4/3/2/1/0---
-------------------------------------
-------------------------------------
-------------------------------------
-------------------------------------

Pr�-refrain:
-------------------------------
-------------------------------
-------------------------------
---0-2-4-0-2-4--x-x-x--x-x-x---
---0-2-4-0-2-4--x-x-x--x-x-x---
---0-2-4-0-2-4--x-x-x--x-x-x---

Refrain:
-------------------------------------
-------------------------------------
-------------------------------------
---0-0-0-0-5-5-5-5-0-0-0-0-5-5-5-5---
---0-0-0-0-5-5-5-5-0-0-0-0-5-5-5-5---
---0-0-0-0-5-5-5-5-0-0-0-0-5-5-5-5---

Copyrights
Author: ?
Composer: ?
Publisher: ?
More details
Language: English

Reactions

CommonCrawl [Bot]

Follow Muzikum