AFI
G (Guitar tab)

e|--------------------------------------------------------------------------
B|--------------------------------------------------------------------------
G|------3-----3--------------2-----2------------2-----2--------------3----3-
D|--5-5---5-5---5-5----3-3---3-3---3-3----0-0---0-0---0-0----1-1--1-1---1-1-
A|--------------------------------------------------------------------------
E|--------------------------------------------------------------------------

e|---------1--------------------------------------------------------------
B|----------3-------------------------------------------------------------
G|-----3-----3-0-0------2-----2--------------2-3-2-------------3-----3----
D|-5-5---------------3-3---3-3---3-3----0-0-------3-0-----1-1---1-1---1-1-
A|------------------------------------------------------------------------
E|------------------------------------------------------------------------

Copyrights
Author: ?
Composer: ?
Publisher: ?

Reactions

CommonCrawl [Bot]

Follow Muzikum