AFI

AFI
A Winter's Tale (Bass tab)

Intro X4 only on 4th time
|-------------+----------|
|------3------|-3-5-3----|
|-5-3-----1-3-|--------5-|
|-------------+----------|

Verse
|----------------------------------2-3-4-5-|
|-------0-1-3-----2-3-------0-1-3----------|
|-5-1----------3-------5-1-----------------|
|------------------------------------------|

|---------------------------------2-3-4-5------------|
|------3-------3---------0-1-2-3------------2-5-0----|
|-5-1-----3-5-----5-3-1----------------------------1-|
|----------------------------------------------------|

A String of White lights...
|-----------2-|
|----2-3-4----|
|-5-----------|
|-------------|

Chorus
|--------+-------------+------------0-2-3-2-|
|-3------|--3----------|-3-------3----------|
|----3-5-|-----3-1-5-3-|----3-5-------------|
|--------+-------------+--------------------|

If only one for night...
|-------------------------------5h7-|
|----5h7-3-3h5------------5h7-------|
|-5-------------3-5h7-5-------------|
|-----------------------------------|

FunkyHed@hotmail.com

OptimusPrime

Submitted by OptimusPrime at Thu 14 Aug, 2003 3:44 pm

Author: ?
Composer: ?
Publisher: ?
Language: English
Available on: AFI (2004)

Reactions

CommonCrawl [Bot]

Follow Muzikum