AFI
Crop Tub (Bass tab)

Crop Tub
AFI
Very Proud Of Ya
normal tuning

intro

----------------------
---------------------- repeat a few times
---------4-44-------4-
----6-66------6-66----

verse

------------|---------------
------------|---------------
--4---------|--4--------7-6-
-----4-6-4--|-----4-6-4-----

hard to hear solo thingie right before the next verse

---------------------------------------- (play really fast, but keep
--9-11-9-11-9-11-9----9----------------- in mind that the number i
-------------------11---11-10-9--------- put is only the fret, not
--------------------------------11-10-9\ the number of times you
play it)

that's pretty much it
tabbed by Andrew
think i'm wrong? filibusterafi@aol.com

Copyrights
Author: ?
Composer: ?
Publisher: ?
More details
Language: English

Reactions

CommonCrawl [Bot]

Follow Muzikum