Limp
X-99 (Guitar tab)

intro
e|------------------------------------------------------------------------|
B|------------------------------------------------------------------------|
G|------4--2--------------------------------------------------------------|
D|---2--4--2--------------------------------------------------------------|
A|---2--2--0--------------------------------------------------------------|
E|---0--------------------------------------------------------------------|

verse
e|------------------------------------------------------------------------|
B|------------------------------------------------------------------------|
G|----------4--------------2----------------------------------------------|
D|---2------4------2-------2----------------------------------------------|
A|---2------2------2-------0----------------------------------------------|
E|---0-------------0------------------------------------------------------|

end
e|------------------------------------------------------------------------|
B|------------------------------------------------------------------------|
G|---4-4-4-4-4-4----------------------------------------------------------|
D|---4-4-4-4-4-4--6--4----------------------------------------------------|
A|---2-2-2-2-2-2--6--4----------------------------------------------------|
E|----------------4--2----------------------------------------------------|

Tabbed by T0xiC AveNgeR

Copyrights
Author: ?
Composer: ?
Publisher: ?

Reactions

CommonCrawl [Bot]

Follow Muzikum