Ijale
G Otto (Guitar tab)

Title: G-OTTO
Artist: IJALE!
Date: 09/2001
Tabbed by Dario Buttazzo, 25/03/2002

Intro

(----------------------------------------------------------------------------------------------------
(----------------------------------------------------------------------------------------------------
(----------------------------------------------------------------------------------------------------
(----------------10------------------------8-----------------------6-----------------------8---------
(--10-----10------------10-----8-----8-----------8-----6-----6-----------6-----8-----8-----------8---
(8------8------8------8------6-----6-----6-----6-----4-----4-----4-----4-----6-----6-----6-----6-----

-------------------------------------------------------------------------------------------------------)
-------------------------------------------------------------------------------------------------------)
-------------------------------------------------------------------------------------------------------)
----------------10------------------------8-----------------------6-----------------------8--let ring--)
--10-----10------------10-----8-----8-----------8-----6-----6-----------6-----8-----8------------------)
8------8------8------8------6-----6-----6-----6-----4-----4-----4-----4-----6-----6-----6--------------)


Chorus

(--------------------------------------------------------------------------
(--------------------------------------------------------------------------
(--------------------------------------------------------------------------
(10-10---10-10-10-8---6-6---6-6-6-8---10-10---10-10-10-8---6-6---6-6-6-8---
(10-10---10-10-10-8---6-6---6-6-6-8---10-10---10-10-10-8---6-6---6-6-6-8---
(-8--8----8--8--8-6---4-4---4-4-4-6----8--8----8--8--8-6---4-4---4-4-4-6---

--------------------------------------------------------------------------)
--------------------------------------------------------------------------)
--------------------------------------------------------------------------)
10-10---10-10-10-8---6-6---6-6-6-8---10-10---10-10-10-8---6x--------------)
10-10---10-10-10-8---6-6---6-6-6-8---10-10---10-10-10-8---6x--------------)
-8--8----8--8--8-6---4-4---4-4-4-6----8--8----8--8--8-6---4x--------------)


Verse 1

(------------------------------------------------------------------------------------
(------------------------------------------------------------------------------------
(------------------10-10-------------6-6-------------8-8-----------------------------
(10-10-------------10-10-------------6-6-------------8-8-------------8-8-------------
(10-10--------------8--8-------------4-4-------------6-6-------------8-8-------------
(-8--8---------------------------------------------------------------6-6-------------

---------------------------------------------------------------------------------------------------------------------------------------)
---------------------------------------------------------------------------------------------------------------------------------------)
10-10-------------6-6-------------8-8-----------------------------10-10---10-10-10-10-10-6-6---6-6-6-6-6-8-8---8-8-8-8-8---------------)
10-10-------------6-6-------------8-8-------------8-8---8-8-8-8-8-10-10---10-10-10-10-10-6-6---6-6-6-6-6-8-8---8-8-8-8-8-8--let ring---)
-8--8-------------4-4-------------6-6-------------8-8---8-8-8-8-8--8--8----8--8--8--8--8-4-4---4-4-4-4-4-6-6---6-6-6-6-6-8-------------)
--------------------------------------------------6-6---6-6-6-6-6--------------------------------------------------------6-------------)


Verse 2

(------------------------------------------------------------------------------
(------------------------------------------------------------------------------
(-----------------------10-10---10-10-10-10-10-6-6---6-6-6-6-6-8-8---8-8-8-8-8-
(10-10---10-10-10-10-10-10-10---10-10-10-10-10-6-6---6-6-6-6-6-8-8---8-8-8-8-8-
(10-10---10-10-10-10-10-10--8----8--8--8--8--8-4-4---4-4-4-4-4-6-6---6-6-6-6-6-
(-8--8----8--8--8--8--8--------------------------------------------------------

---------------------------------------------------------------------------------------)
---------------------------------------------------------------------------------------)
----------------10-10---10-10-10-10-10-6-6---6-6-6-6-6-8-8---8-8-8-8-8-----------------)
8-8---8-8-8-8-8-10-10---10-10-10-10-10-6-6---6-6-6-6-6-8-8---8-8-8-8-8-8---8---8---8---)
8-8---8-8-8-8-8--8--8----8--8--8--8--8-4-4---4-4-4-4-4-6-6---6-6-6-6-6-8---8---8---8---)
6-6---6-6-6-6-6--------------------------------------------------------6---6---6---6---)


Chorus 2

(------------------------------------------------------------------)
(------------------------------------------------------------------)
(------------------------------------------------------------------)
(10-10-------------8-8-------------6-6-------------8-8-------------) X 2
(10-10-------------8-8-------------6-6-------------8-8-------------)
(-8--8-------------6-6-------------4-4-------------6-6-------------)


Solo

(----------------------------------------------------------------------------
(----------------------------------------------------------------------------
(------------------------------------------------8-10---8--------------------
(------------------------------------8-10-8---10----------10-8---------------
(----------8-10---8-----------8-10-------------------------------10-8-10---8-
(11-8---11----------11-8---11------------------------------------------------

---------------------------------------------------------------------------------)
---------------------------------------------------------------------------------)
--------------------------------------------------------------8-8-8--------------)
------------------------------------8-10-10-10-10-10-10-10-10-------10-8---------)
----------8-10---8-----------8-10----------------------------------------10-8----)
11-8---11----------11-8---11--------------------------------------------------11-)




This is the order of the song:

-Intro
-Chorus x2
-Verse 1
-Chorus x2
-Verse 1
-Chorus x2
-Verse 2
-Chorus x2
-Solo
-Chorus
-Chorus 2
-Chorus x2

Lyrics:

CHE CAZZO!

Fotti!
Quel cazzo di corrotti
Che tengono il potere
Come camicie nere
E che sfruttano il mondo
Da cima fino a fondo
Dividono le terre
Fomentano le guerre
Per il loro interesse
E sfornano promesse
Di un mondo migliorato
Ora mi son stufato
Di esser controllato

CHE CAZZO!

Fotti!
Una marea di gente
Che vive senza niente
E che soffre malattie
La fame ed epidemie
La guerra e carestie
Non ci si puo' fermare
Non li si puo' aiutare
Bisogna incrementare
L'economia globale

CHE CAZZO!

Copyrights
Author: ?
Composer: ?
Publisher: ?

Reactions

CommonCrawl [Bot]

Follow Muzikum