Home Grown

Home Grown
S (Bass tab)

====================================================
Homegrown - S.F.L.B.
====================================================

Tabbed by: Profesh
Email: eric_jaeger@hotmail.com

Intro:
G|---------------------------------->
D|-----6-6-------------------------->
A|-4-44---4-44---------------------->
E|---------------------------------->

>----------------------------------|
>--------------6-6-----------------|
>-0h2--0h2-4-44---4-44-------------| x8
>----------------------------------|


Chorus:
G|----------------------------------|
D|---------------2-22-2224-44-444---|
A|-2-2-3-4-44-444-------------------| x4
E|----------------------------------|


Pre-Verse:
G|-------/--x3--\------------------->
D|---------------------|All-this|--->
A|-2-2-3-4-44-444------|-3-times|--->
E|---------------------------------->

>----------------------------------|
>-------------7-6-4----------------|
>-2-2-3-4h-----------7-5-4-2-------|
>----------------------------------|


Verse:
G|----------------------------------|
D|----------------------------------|
A|-4-44-4442-22-2220-00-0002-22-222-| x8
E|----------------------------------|


Pre-Chorus:
G|----------------------------------|
D|----------------------------------|
A|0h--0-0-0-0-0-0-2h--2-2-2-2-2-2---| x4
E|----------------------------------|

Chorus x4

Pre-Verse

Verse x8

Pre-Chorus x4

Chorus x8

Ending:
G|----------------------------------|
D|----------------------------------|
A|-2-2-3-4-2-3-4-2-3-4\-------------|
E|----------------------------------|

====================================================

OptimusPrime

Submitted by OptimusPrime at Thu 14 Aug, 2003 5:23 pm

Author: ?
Composer: ?
Publisher: ?
Language: English

Reactions

CommonCrawl [Bot]

Follow Muzikum