Flaw

Flaw
Best I Am Ver 2 (Guitar tab)

Easy song to play this is for people who dont have a 7-string or
their guitar doesn't tune low well; Tuning Drop C

Verse and Intro:
Bar on 2nd fret d
--------------------------------------------- ---------------------
---------5-------5-p-3-----------5-----5-p-3- ---------3----3-p-0--
--2-----------------------2----------------------4----------------
0----0-------0----------0---0-----0---------- -4----4----4---------
---------------------------------------------- --------------------
---------------------------------------------- --------------------

------------------------------------------------------------------
---0-----3------3-p-0---------------------------------------------
------------------------------------------------------------------
-4---4-------4----------------------------------------------------
------------------------------------------------------------------
------------------------------------------------------------------
Chorus
----------------------------------------------------------------
----------------------------------------------------------------
----------------------------------------------------------------
3-3-3-3-3--3-3-3-3-3--33--0-0-0-0-0--0-0-0-0-0--00-3------------
3-3-3-3-3--3-3-3-3-3--33--0-0-0-0-0--0-0-0-0-0--00-3------------
3-3-3-3-3--3-3-3-3-3--33--0-0-0-0-0--0-0-0-0-0--00-3------------

Bridge:
---------------------------------------------------------
---------------------------------------------------------
---------------------------------------------------------
3-3---3-3--3-3--0-0--0-0--0-0----------------------------
3-3---3-3--3-3--0-0--0-0--0-0----------------------------

OptimusPrime

Submitted by OptimusPrime at Sun 01 Dec, 2002 9:55 am

Author: ?
Composer: ?
Publisher: ?
Language: English

Reactions

CommonCrawl [Bot]

Follow Muzikum