Flaw

Flaw
Out Of Wack (Guitar tab)

#

OUT OF WACK
As recorded by Flaw
(From the 2001 Album THROUGH THE EYES)

Transcribed by Jason Wall
email sofew@earthlink.net

this song is played using standard tuned seven string guitars

Tuning : BEADGBE

Intro:
Gtr I
|-------------------------------------------------------------------------|
|-------------------------------------------------------------------------|
|-------------------------------------------------------------------------|
|-------11-11-11-------9-9-9-7-7-6-6--------11-11-11-------9-9-9--/7--6---|
|-9-9-9--9--9--9-7-7-7-7-7-7-5-5-4-4--9-9-9--9--9--9-7-7-7-7-7-7--/5--4---|
|-7-7-7----------5-5-5----------------7-7-7----------5-5-5----------------|
|-------------------------------------------------------------------------|


|----------------------------------------------------------------|
|----------------------------------------------------------------|
|----------------------------------------------------------------|
|-------11-11-11-------9-9-9-7-7-6-6--------11-11-11-------9\----|
|-9-9-9--9--9--9-7-7-7-7-7-7-5-5-4-4--9-9-9--9--9--9-7-7-7-7\----|
|-7-7-7----------5-5-5----------------7-7-7----------5-5-5-------|
|----------------------------------------------------------------|

Verse:
PM-----------------------------------------------------|
|-------------------------------------------------------------------|
|-------------------------------------------------------------------|
|-------------------------------------------------------------------|
|----------------------------------------------------9-9-9----------|
|-------9-9-9-------7-7-7-5-5-4-4--------9-9-9-------7-7-7--/5--4---|
|-7-7-7-------5-5-5----------------7-7-7-------5-5-5----------------|
|-------------------------------------------------------------------|


PM-----------------------------------------------------|
|-----------------------------------------------------------------|
|-----------------------------------------------------------------|
|-----------------------------------------------------------------|
|----------------------------------------------------9-9-9--7\----|
|-------9-9-9-------7-7-7-5-5-4-4--------9-9-9-------7-7-7--5\----|
|-7-7-7-------5-5-5----------------7-7-7-------5-5-5--------------|
|-----------------------------------------------------------------|

Chorus: play this part before the break
|--------------------------------------------------------|--------|
|--------------------------------------------------------|--------|
|--------------------------------------------------------|--------|
|-9-9--------------------------9-9-----------------------|-7-6----|
|-9-9---/5--5-5-5---/7-7-5-5---9-9---/5--5-5-5---/7-7-5--|-5-4-9--|
|-7-7---/5--5-5-5---/5-5-5-5---7-7---/5--5-5-5---/5-5-5--|-----7--|
|-7-7-0-/3--3-3-3-0------------7-7-0-/3--3-3-3-0---------|--------|


im not 100% sure what the other guitar is playing during this part
break:
PM--|
6x
||-----------------------------||--------------------------------|
||-----------------------------||--------------------------------|
||o---------------------------o||--------------------------------|
||--4-4-4--7--7-7-7-7-7-7-7-7--||-7-7-7-7-7-7-7-7-7-7-7-7-7-6----|
||o-2-2-2--5--5-5-5-5-5-5-5-5-o||-5-5-5-5-5-5-5-5-5-5-5-5-5-4----|
||--2-2-2--5--5-5-5-5-5-5-5-5--||-5-5-5-5-5-5-5-5-5-5-5-5--------|
||-----------------------------||--------------------------------|



Tablature Legend
----------------
/\ - slide into or out of (from/to "nowhere")
PM - palm muting



***************************************************************************************
* Generated using Power Tab Editor by Brad Larsen - http://powertab.guitarnetwork.org *

OptimusPrime

Submitted by OptimusPrime at Sun 01 Dec, 2002 9:55 am

Author: ?
Composer: ?
Publisher: ?
Language: English

Reactions

CommonCrawl [Bot]

Follow Muzikum