Flint

Flint
Lonely People (Guitar tab)

This is a Song from my own Band Flint.
This is the first song on the album.

Bass Intro
Standard tunning

-------------------------------------
- 0-2----0-5---4---------------------
-0---2----0---5----5------------------
0------0------------------------------


guitar verse
(It's just two chords)

G,Cadd9

Pre Chorus G cadd9 D?
-----------3-------- 3------------3--------------------------------
-----------3---------3------------3-------------------------------
--------------------------------2-------------------------------
-----------------2----------------------------------------------
------2--------------3-------------------------------------------
--------3--------------------------------------------------------


The chorus is the same as the pre chorus except it has another Cadd9 on the
end.

Tabbed by Jack Mockford
flint_@hotmail.com
Check out the couting crows message board for regular updates on
Flint. www.countingcrows.com

OptimusPrime

Submitted by OptimusPrime at Sun 01 Dec, 2002 9:54 am

Author: ?
Composer: ?
Publisher: ?
Language: English

Reactions

CommonCrawl [Bot]

Follow Muzikum