The Fools

The Fools
Guilt Trip (Guitar tab)

#
#






Date: Mon, 16 Dec 1996 22:05:16 -0500
From: John Hoptak
Subject: THE FOOLS ; " Guilt Trip "


" Guilt Trip " lyrics by Daniels, music by Daniels, Solga, Hoptak and
Eisenhauer



CHORD PROGRESSIONS: Verses 1 & 2


E)----2------3----3---2
A)----2------3----5---4
D)----4------5----5---4
G)----4------5----4---3
B)----4------5----3---2
e)----4------5----3---2

Bridge:

E)--3---2---3---2
A)--5---4---5---4
D)--5---4---5---4
G)--4---3---4---3
B)--3---2---3---2
e)--3---2---3---2

Chorus:
Barre Chords : B,A,G
B,A,G
B,A,G,F
B,A,G
Solo:

A)---3-4-3-4-5-6-3-4-3-4-5-6


Chorus: same as above

If you have any questions, comments, or any thing to say about this
tab you can e-mail me at imagine@ptd.net

OptimusPrime

Submitted by OptimusPrime at Sun 01 Dec, 2002 9:52 am

Author: ?
Composer: ?
Publisher: ?
Language: English

Reactions

CommonCrawl [Bot]

Follow Muzikum