Freestyle

Freestyle
So Slow (Guitar tab)

Freestyle: So Slow
Transcribed by: Mark Ramos (flamepower8@email.com)
Im not sure all of this tabs......."pero pwede na to"..okey!!!!!

INTRO:
E-----------------------3-------------------------------5----------|
B---5---5----3-------3--3--------3---1----1--1------0---6----------|
G---4-4-4----3----3--3--3-----3--3---3----2--2------0---5---5--4---|
D-----------------------------------------------------------5--3---|
A---3---3----3--3----------3---------3--------------2---5---5--5---|
E-----------------------------------------1------0----------3--3---|


E-----------------------3--------------------------------5----------|
B---5---5----3-------3--3--------3---1----1--1------0----6----------|
G---4-4-4----3----3--3--3-----3--3---3----2--2------0----5---5--4---|
D------------------------------------------------------------5--3---|
A---3---3----3--3----------3---------3--------------2--3/5---5--5---|
E-----------------------------------------1------0-----------3--3---|


VERSE 1:
E------------------------------------------------------------|
B---1--1---1--1--1---1-----0--0----0------1--1---------------|
G---0--0--0---0--0--0------0--0--0--------2--2---------------| REPEAT THIS 3X
D-----------------------------------------3--3---------------|
A---0---------0-----------------------------------------0----|
E--------------------------0---------------------0---3-------|

E--------------------------------------------------------|
B---1--1---1--1--1---1-----0--0----0---------------------|
G---0--0--0---0--0--0------0--0--0------5--5---4---------|
D---------------------------------------5--5---3---------|
A---0---------0-------------------------5--5---5---------|
E--------------------------0------------3--3---3---------|


REFRAIN:
E----0----0--0----0--0-----0--------------------------------------------|
B----1----1--1----0--0-----0---1-1-------1-1----1---3-3-----------------|
G-------2----------------------0-0--0----0-0--0-----3-3----5-5--4-------|
D----3-------3---------------------------------------------5-5--3-------|
A--------------------------2---0------0--0-0---------------5-5--5---4---|
E-----------------0--0--0---------------------------3-3----3-3--3---2---|

E----0----0--0----0--0-----0-----------------------------------------|
B----1----1--1----0--0-----0---1-1-------1-1----1--------------------|
G-------2----------------------0-0--0----0-0--0------3--5-4----------|
D----3-------3---------------------------------------3--5-3----------|
A--------------------------2---0------0--0-0---------5--5-5----------|
E-----------------0--0--0----------------------------3--3-3----------|


CHORUS:
E-----------------------3--------------------------------------5--5------------|
B---5---5----3-------3--3--------3---1----1--1----1---0----0---6--6---6--------|
G---4-4-4----3----3--3--3-----3--3---3----2--2--2-----0--0-----5-----5--5--4---|
D-----------------------------------------3-----------------------------5--3---|
A---3---3----3--3----------3---------3----------------2--------5--------5--5---|
E---------------------------------------------------0-------------------3--3---|

E-----------------------3----------------------------------------5--5------------|
B---5---5----3-------3--3--------3---1----1--1----1---0----0-----6--6---6--------|
G---4-4-4----3----3--3--3-----3--3---3----2--2--2-----0--0-------5-----5--5--4---|
D-----------------------------------------3-------------------------------5--3---|
A---3---3----3--3----------3---------3----------------2--------3/5--------5--5---|
E---------------------------------------------------0---------------------3--3---|

VERSE2:
REFRAIN & CHORUS........Before you do the bridge "Gsus nalang"
wala ng "G7" (wat i mean 2 say is,the last chords from Chorus)
BRIDGE:
E-----------------------------------------|--------------------------0-X-X-X--|
B-------------6------6---------8------8---|--------6------6------8---2-X-X-X--|
G-------------5------5---------7------7---|--------5------5------7---0-X-X-X--|
D-----------------------------------------|--------------------------2-X-X-X--|
A------0-3-5-----5-5----5--/7-----7-7-----|--0-3-5----5-5----5/7-----0-X-X-X--|
E---3-------------------------------------|-----------------------------------|


E-------------------------|--------------------------------------|
B-----6-----6-----8---8---|---6-X-X-X---8-X-X-X---9-X-X-X----3---|
G-----5-----5-----7---9---|---5-X-X-X---7-X-X-X---9-X-X-X----5---|
D---------------------9---|----------------------------------5---|
A---5---5-5---5/7-----7---|---5-X-X-X---7-X-X-X---8-X-X-X----5---|
E-------------------------|----------------------------------3---|




Freestyle- So Slow

Intro: CM7-C9-C7-F7-Em7-Dm7-Gsus-G7 2x
Hmmmmm........

Verse 1:
Am7 Em7 FM7(/E/G)
I been with you boy 3 years is quite a while
Am7 Em7 FM7(/E/G)
Getting sensual is really not my style
Am7 Em7 FM7(/E/G)
You know i love and i like it just like this
Am7 Em7 Gsus-G7
Sometimes i feel like givin you more than just a kiss

Refrain:
FM7 Em7
But baby its wrong, Baby its not the kind of game
Am7 Gm7 Gsus G7
If i give it to you now, our love will never be thesame
F# FM7 Em7
It won't be long, we got to play a love just right
Am7 Gm7 Gsus G7
I know you know the will come, but baby for tonight

Chorus:
CM7 C9 C7
Lets take slow, so slow, any where you wanna go
FM7 Em7 Dm7 Gsus-G7
Baby for you i lay it all the light
CM7 C9 C7
You are to know, i know, Boy i ain't got no where to go
FM7 Em7 Dm7 Gsus-G7
I give it to you, only to you, we got to take it real slow

Verse 2:
When we get together, you know i feel the fire
It burns up inside, oh that natural desire
I know that you feel it too, i know you wanna flow
Keep dreami'n about it, and the fire starts to grow

(Repeat Refrain & Chorus)

Bridge:
/G /A /C Dm7 Em7
I know tommorrow it will still be you and me
/A /C Dm7 Em7 A7
I'm save it all for you specially...
Dm7 Em7 Em pause
Trust in me baby when i say to you
Dm7 Em7 F Gsus brake
If we wait a little longer, our love will be forever true

(Repeat Chorus 2x) CM7........

OptimusPrime

Submitted by OptimusPrime at Sun 01 Dec, 2002 9:51 am

Author: ?
Composer: ?
Publisher: ?
Language: English
Available on: 18 Greatest Hits (2009)

Reactions

4 posts

CommonCrawl [Bot]
Anonymous
Thu 26 Jun, 2003 4:15 pm
Finally.
Thanks gyud talaga...honest!
Peace!

-onyok
Anonymous
Tue 27 May, 2003 9:24 am
ei mark cute ka bah .. lol
Anonymous
Tue 27 May, 2003 9:23 am
ang heeeraff nga!!! d ko maquha!!! oki na yn
Anonymous
Thu 22 May, 2003 12:45 am
vakit sha maheeraf?
4 posts • Page 1 of 1

Follow Muzikum