The Frogs

The Frogs
I Only Play 4 Money (Guitar tab)

Date: Mon, 01 Dec 1997 15:43:05 PST
From: Jesse Alora
Subject: TAB: I Only Play 4 Money by The Frogs

I ONLY PLAY 4 MONEY - from "Starjob"
written & recorded by THE FROGS tab by Jesse Alora and Nick Buchholz
The Frogs Web Site: www.geocities.com/Broadway/7100



Verse
E------------------------------------------------------------
B------------------------------------------------------------
G---------------0--------------2---------2--------0----------
D------------0--------------0---------0--------0-------------
A------5--5--------5-----5--------0---------0----------------
E------3------------3----------------------------------------

Pre-Chorus
G F#/G F#
E-------0------0------0--------------------------------------
B-------0------0------0--------------------------------------
G-------4------4------3--------------------------------------
D-------5------5------4--------------------------------------
A-------5------5------4--------------------------------------
E-------3------2------2--------------------------------------

E------------------------------------0-----------------------
B-------------------0-------------------0--------------------
G---------------3------3------------------2-------------2----
D-----------4--------------4------------------4------4---4---
A------4-----------------------4------------------4----------
E--2---------------------------------------------------------

Chorus
D C G
E--------------------------------------2-----8----------10----
B--------------------------------------3-----8----------10----
G------0------0------0------0----------2-----0-----------0----
(repeat)
D----------4------4------4-----4-------0-----0-----------9----
A--------------------------------------------7----------10----
E--------------------------------------------8----------------

I don't do interviews
I won't sign autographs
Don't you love the star when he's a prick?
I only play for money
I don't give a fuck about the fans
I only play for money
I don't give a shit if you dance
'Cause you're diggin' on the star
'Cause you're diggin' on the one who's gone so far
If you take my picture
Your camera's smashed
If you send me fan mail
I won't write back
Don't you love the star when he's a prick?
I only play for money
I don't give a fuck about the fans
I only play for money
So keep your autograph books at home I don't give a damn
'Cause you're diggin' on the star
'Cause you're diggin' on the one who's gone so far

OptimusPrime

Submitted by OptimusPrime at Sun 01 Dec, 2002 9:50 am

Author: ?
Composer: ?
Publisher: ?
Language: English

Reactions

CommonCrawl [Bot]

Follow Muzikum