From Autumn To Ashes

From Autumn To Ashes
Short Stories With Tragic Endings (Guitar tab)

Can you believe this is the only TAB for 'From Autumn to Ashes'

This is the beginning as i could figure it out...

E--------------------------|
B--------------------------|
G-----5----4--5------------|
D---7---7--------7---------|
A-0------------------------|
E--------------------------|

The later part where the Girl sings (about 6 min or so in) goes something like this:

E-------------------------------------|
B-------------------------------------|
G-5-------------------4--------------0|
D-7-(about 10x or so)-7--(10x again)-7|
A-0-------------------0--------------0|
E-------------------------------------|

That's all i've come up with so far. I'm sitting here with my acoustic TABbing as i listen, so i don't have any of the heavy metal parts down yet, if i get more, i'll definitely be sure to add them.

Any questions or comments should be directed to:

NoofNoof1@aol.com

Thank you,

OptimusPrime

Submitted by OptimusPrime at Sun 01 Dec, 2002 9:50 am

Author: ?
Composer: ?
Publisher: ?
Language: English

Reactions

3 posts

CommonCrawl [Bot]
Anonymous
Sun 25 May, 2003 7:41 pm
a more accurate intro is:

e:---------------------------------------------
b:--------------------------------1-0h1--------
g:-----------------------------2---------2-----
d:--------------------------3------------------
a:-----------------------0---------------------
e:---------------------------------------------
Anonymous
Mon 14 Apr, 2003 7:32 pm
does anyone have the chords for this song? Or can someone teach me to play tabs!? ahh... must learn somehow... life would be so much easier....
Anonymous
Mon 20 Jan, 2003 7:58 pm
E--------------------------|
B----------0-----then 0----
G-----------5----------5-|
D------------7--------- 7|
A-------------8---------- 8|
E--------------------------|

Pick the intro, (up and down, slowly) then

E--------------------------|
B-----------0--then--0 ----------|
G------------5----- 5 |
D-------------7------ 7 |
A--------------0--------0---|
E--------------------------|

continued by

E--------------------------|
B--------------------------|
G-------------2---------|
D-3------3----2-------|
A-3------3----0----------|
E-1------1-----------------|

go on ultimate guitar.com to find the rest of it, bye
3 posts • Page 1 of 1

Follow Muzikum