Frosted

Frosted
Call Me Crazy (Guitar tab)

Date: Sun, 26 Apr 1998 08:11:59 -0700
From: "JJ Baron"
Subject: f/frosted/call_me_crazy.tab

CALL ME CRAZY by froSTed (wiedlin/hunter �1996 wiedwacker music)

My interpretation only - is by no means 100% correct - I'm not even sure
that 'E' chord sounds right, maybe it's just my shitty guitar and rusty
strings.

Backing vocals and some backing guitar not included
Tabbed by Jason Baron
Apr. 3 1998

If you have more froSTed tabs, or can
improve on this one PLEASE e-mail me NOW!

******* jjbaron@mailexcite.com ********

*************************************************************************

rhythm fig.1 (intro/chorus)
e|----------------0-----0-----------------2-----2------------------------
b|----------------2-----2-----------------3-----3------------------------
g|----------------2-----2-----1--1--1--1--2-----2-----1--1--1--1---------
d|----------------2-----2-----2--2--2--2--0-----0-----2--2--2--2---------
a|----------------------------2--2--2--2--------------2--2--2--2---------
E|----------------------------0--0--0--0--------------0--0--0--0---------
chorus.
beat: 1 2 3 4 1 2 3 4
call me cra___zy call me
ma____ad last yearwasa
drag thewrstIve
ha____ad call me
cra___a_____a_e_a_zy (go to solo 1,2 or ending)


rhythm fig.2 (1st/2nd/3rd verse)
e|-------------------------------------------------------------
b|-------------------------------------------------------------
g|-------------------------------------------------------------
d|----------------------------------0-----0--------------------
a|----------2-----2-----0--0--0--0--------------0--0--0--0-----
E|-------------------------------------------------------------
verse1.
beat: 1 2 3 4 1 2 3 4
I_____ ke____ep try_________ing
I don't know why I do
Swe_________tly bea_________ting my
Headagainst the wall
I_____ ke____ep ly__________ing,
Ly____ing thru my teeth
Wait________ing pa__________tientfor
My moment to fall___


verse2.
beat: 1 2 3 4 1 2 3 4
I_____ ke____ep rhy_________ming
Time marches on
He____als all wou___nds ya
Know what I mean
I'm___ no____ot whi_________ning
Don't get me wrong
No____t all li____nes are
Meant to read be___twe____en

verse3.
beat: 1 2 3 4 1 2 3 4
WellIguess I care
But I don't real__ly care
Fro________mwhe_______reI___________sit the
Gutterlooksupthe__________________________re



Solo1.
e|--------------------------------------------------------------------
b|--------------12--12--10--12--10--7--7-\-5--5--7--8--7--7--0--2--3--
g|--------------------------------------------------------------------
d|--------------------------------------------------------------------
a|--------------------------------------------------------------------
E|--------------------------------------------------------------------
.. call me ma - ad...


e|--------------------------------------------------------------------
b|--------------------------------------------------------------------
g|---------2-------------(p)----(let-ring..)--------------------------
d|-----------------4--2~~--0--0---------------------------------------
a|--------------------------------------------------------------------
E|--------------------------------------------------------------------



Solo2.
e|----------------------------------------------------------------
b|--------------12----7----12--7----12----7-12-7-12-7-12-7--------
g|----------------------------------------------------------------
d|----------------------------------------------------------------
a|----------------------------------------------------------------
E|----------------------------------------------------------------
.. call me ma - ad...

e|----------------------------------------------------------------
b|-------12----7----12--7-----5----7-8-7----7-8-7-----------------
g|----------------------------------------------------------------
d|----------------------------------------------------------------
a|----------------------------------------------------------------
E|----------------------------------------------------------------

e|----------------------------------------------------------------
b|-------12----7----12--7----12----7-12-7-12-7-12-7---------------
g|----------------------------------------------------------------
d|----------------------------------------------------------------
a|----------------------------------------------------------------
E|----------------------------------------------------------------

e|----------------------------------------------------------------
b|-------12----7----12--7-----5----7-8-7----7-8-7~~---------------
g|----------------------------------------------------------------
d|----------------------------------------------------------------
a|----------------------------------------------------------------
E|----------------------------------------------------------------

e|------------------------------------(b)----(h)------------------
b|-------12-7-12-7-12-7-------------12-(14)------(14)\------------
g|----------------------------------------------------------------
d|----------------------------------------------------------------
a|----------------------------------------------------------------
E|----------------------------------------------------------------


ending. (inconsistent timing means vocals are a little off beat)
e|----------------0-----0-----------------2-----2------------------------
b|----------------2-----2-----------------3-----3------------------------
g|----------------2-----2-----1--1--1--1--2-----2-----1--1--1--1---------
d|----------------2-----2-----2--2--2--2--0-----0-----2--2--2--2---------
a|----------------------------2--2--2--2--------------2--2--2--2---------
E|----------------------------0--0--0--0--------------0--0--0--0---------

beat: 1 2 3 4 1 2 3 4
call me ma_ad
cra___a_____a_e_a_zy call me ma____ad
cra___a_____a_e_a_zy call me ma______
_ad call me ma______
_ad call me ma______
_________________ad call me


e|----------------0------------------------------------------------------
b|----------------2------------------------------------------------------
g|----------------2------------------------------------------------------
d|----------------2------------------------------------------------------
a|-----------------------------------------------------------------------
E|-----------------------------------------------------------------------
ma_______________ad


~~ = vibrato
\ = slide down
h = hold
p = pull off
b = bend

*************************************************************************
NOTE:
There are some slight differences between the CD and video versions.
Tabbed here is the CD version.

*************************************************************************
IMPORTANT!!!
I NEED the tabs for 'Two Heads Are Better Than One' by Power Tool.
*************************************************************************

jjbaron@mailexcite.com

OptimusPrime

Submitted by OptimusPrime at Sun 01 Dec, 2002 9:50 am

Author: ?
Composer: ?
Publisher: ?
Language: English

Reactions

CommonCrawl [Bot]

Follow Muzikum