Frozen Fire

Frozen Fire
Wonder (Guitar tab)

Wonder
by frozen fire
written by tim lindberg
standard tuning
(heavy distortion throughout song)

intro
(6 times)

|---------------------------------------------------------|
|---------------------------------------------------------|
|---------------------------------------------------------|
|---------------------------------------------------------|
|--6-6-4-4-2-2-2-2-6-6-4-4-2-2-2-2------------------------|
|-4-4-2-2-0-0-0-0-4-4-2-2-0-0-0-0-------------------------|

verse 1
(6 times)
palm muted

|---------------------------------------------------------|
|---------------------------------------------------------|
|-----------9-9-9-9--7-7-7-7--5-5-5-5---------------------|
|--9-9-9-9--9-9-9-9--7-7-7-7--5-5-5-5---------------------|
|--9-9-9-9--7-7-7-7--5-5-5-5--3-3-3-3---------------------|
|--7-7-7-7------------------------------------------------|

chorus
(6 times)

|---------------------------------------------------------|
|---------------------------------------------------------|
|---------------------------------------------------------|
|--9-9-9-x-7-7-7-x-5-5-5-5-5-5-5-5------------------------|
|--9-9-9-x-7-7-7-x-5-5-5-5-5-5-5-5------------------------|
|--7-7-7-x-5-5-5-x-3-3-3-3-3-3-3-3------------------------|

verse 2
(6times)
palm muted

|---------------------------------------------------------|
|---------------------------------------------------------|
|-----------9-9-9-9--7-7-7-7--5-5-5-5---------------------|
|--9-9-9-9--9-9-9-9--7-7-7-7--5-5-5-5---------------------|
|--9-9-9-9--7-7-7-7--5-5-5-5--3-3-3-3---------------------|
|--7-7-7-7------------------------------------------------|

interlude
(6 times)

|---------------------------------------------------------|
|---------------------------------------------------------|
|---------------------------------------------------------|
|---------------------------------------------------------|
|--6-6-4-4-2-2-2-2-6-6-4-4-2-2-2-2------------------------|
|-4-4-2-2-0-0-0-0-4-4-2-2-0-0-0-0-------------------------|

chorus/outro
(8 times)

|---------------------------------------------------------|
|---------------------------------------------------------|
|---------------------------------------------------------|
|--9-9-9-x-7-7-7-x-5-5-5-5-5-5-5-5------------------------|
|--9-9-9-x-7-7-7-x-5-5-5-5-5-5-5-5------------------------|
|--7-7-7-x-5-5-5-x-3-3-3-3-3-3-3-3------------------------|

OptimusPrime

Submitted by OptimusPrime at Sun 01 Dec, 2002 9:50 am

Author: ?
Composer: ?
Publisher: ?
Language: English

Reactions

CommonCrawl [Bot]

Follow Muzikum