TJ Fulfer

TJ Fulfer
Razor (Guitar tab)

Song: Razor
Artist: TJ Fulfer
Album: The Unknown
Submitted By: TJ Fulfer (The Actual Artist)

Pretty simple song, actually. Some find it difficult, or confusing.
But, it really isn't all that bad. You just need to find the right
strumming pattern for the song as well as when to play things...It
should be simple if you have the song downloaded or the cd, so you
can listen to it at the same time...or beforehand to understand it.

Dropped To C Tuning
CAGFAD

You Can Also Play It In D Tuning As Well
DADGBE

KEY:
* - Harmonic
r - Let Ring
/ - Slide to the next string
X - Dead Notes

Intro:
-------|----------------------|
-------|----------------------|
-------|----------------------|
-5*rr--|-0-7r--7-5r--5-0r--0r-| Repeat this 2nd half 3x, and then play
-5*rr--|-0-7r--7-5r--5-0r--0r-| it a 4th time, only strum the chords that
-5*rr--|-0-7r--7-5r--5-0r--0r-| involve the ringing.

Verse:
(strum these chords at a pretty nice/moderate pace..each chord is listed
quite a bit but it's just an estimate, you MUST listen to the song to get
the pattern.)
----------------------------------------------------
----------------------------------------------------
----------------------------------------------------
-0-0-0-0-0-0--12-12-12-12-12-12--15-15-15-15-15-15--
-0-0-0-0-0-0--12-12-12-12-12-12--15-15-15-15-15-15--
-0-0-0-0-0-0--12-12-12-12-12-12--15-15-15-15-15-15--

Chorus 1:
(basically same strum pattern as above..also estimated)
-------------------------------------------------------
-------------------------------------------------------
-------------------------------------------------------
-0-0-0-0-0-0--5-5-5-5-5-5--3-3-3-3-/-X-X-12------------
-0-0-0-0-0-0--5-5-5-5-5-5--3-3-3-3-/-X-X-12------------
-0-0-0-0-0-0--5-5-5-5-5-5--3-3-3-3-/-X-X-12------------

Chorus 2:
(near same strumming pattern as first chorus)
-------------------------------------------------------
-------------------------------------------------------
-------------------------------------------------------
-0-0-0-0-0-0--5-5-5-5-5-5--3-3-3-3-/-X-X-12rr----------
-0-0-0-0-0-0--5-5-5-5-5-5--3-3-3-3-/-X-X-12rr----------
-0-0-0-0-0-0--5-5-5-5-5-5--3-3-3-3-/-X-X-12rr----------

Lead Solo 1:
(moderate pace)
-------------------------------------------------------------
-------------------------------------------------------------
-------------------------------------------------------------
-----12-----14-----15-----14-----12-----14-----15-----14-----
-12-----12-----12-----12-----12-----12-----12-----12-----12--
-------------------------------------------------------------

-------------------------------------------------------------
-------------------------------------------------------------
-------------------------------------------------------------
-----17-----19-----17------15------17-----15-----12------14--
-17-----17-----17------15------15-----15------12-----12------
-------------------------------------------------------------

-------------------------------------------------------------
-------------------------------------------------------------
-------------------------------------------------------------
-----15-----14-----12-----12----12r--------------------------
-12-----12-----12-----12-----12------------------------------
-------------------------------------------------------------

Lead Solo 2:
(moderate pace - to fast pace - back to moderate)
(repeat these 3 lines 4x getting faster and faster, and then
repeat once more, going extremely slow on certain points,
please, listen to the song so you know what to do)

-------------------------------------------------------------
-------------------------------------------------------------
-------------------------------------------------------------
-----12-----14-----15-----14-----12-----14-----15-----14-----
-12-----12-----12-----12-----12-----12-----12-----12-----12--
-------------------------------------------------------------

-------------------------------------------------------------
-------------------------------------------------------------
-------------------------------------------------------------
-----17-----19-----17------15------17-----15-----12------14--
-17-----17-----17------15------15-----15------12-----12------
-------------------------------------------------------------

-------------------------------------------------------------
-------------------------------------------------------------
-------------------------------------------------------------
-----15-----14-----12-----12----12rrr------------------------
-12-----12-----12-----12-----12------------------------------
-------------------------------------------------------------

Outro:
(repeat this a few times)

-------------------------------------------------------------
-------------------------------------------------------------
-------------------------------------------------------------
-15-12-0rr---5-5-5-5-5-3-3-3-3-3--0--15p12--0r---------------
-15-12-0rr---5-5-5-5-5-3-3-3-3-3--0--15p12--0r---------------
-15-12-0rr---5-5-5-5-5-3-3-3-3-3--0--15p12--0r---------------

Last Note:
------
------
------
-5*r--
-5*r-- Let the distortion catch a loud feedback.
-5*r--

To basically recreate this song, do everything in the following
order:

Intro Note x1
Intro x3 and then Strum
Verse x4
Chorus x4
Verse x4
Chorus2 x4
Lead solo1 x1
Verse x4
Chorus x4
Verse x4
Chorus2 x4
Lead Solo 2 x1
Outro x3-4


You'll never really get the full effect out of any of my songs
unless you actually hear it. That's basically the same way
with almost any song. But this song is the one you'll probably
need to hear the most to retrieve the full effect. Play around
with it, and have fun. If you have questions or comments, please
email me at: slightlydisabled@aol.com or leave a message on my
guestbook or messageboard at www.geocities.com/tjfulfer/

If you need the mp3..or cd..contact me!!!!

OptimusPrime

Submitted by OptimusPrime at Sun 01 Dec, 2002 9:49 am

Author: ?
Composer: ?
Publisher: ?
Language: English

Reactions

CommonCrawl [Bot]

Follow Muzikum