Fito Paez

Fito Paez
Mariposa Technicolor (Guitar tab)

Fito Paez
Mariposa Tecknicolor (TAB)
Fito Paez
Circo Beat ()


----------------------------------------------------------------
----------------------------------------------------------------
-----0-0-0-0-0-------------0--------------------0---------------
--------------------3-2-3----------0---2---3-3----3--0--2--3----
---------------------------------3------------------------------
----------------------------------------------------------------


----------------------------------------------------------------
----------------------------------------------------------------
----------------------------------------------------------------
--3-3-3-3-3-3-2-0-------------------0-3-2-2-2-2-0------0--------
---------------------------3-2-2-2-0---2-----------------3-2--3-
----------------------------------------3-----------------------


0-0-0----------1-1-1-0---0-0-0----------------1-0---------------
-------3-1-3-1----------3---------3-1-3-1----------3-1----3-1---
------------------------------------------------2-----------2---
----------------------------------------------------------------
----------------------------------------------------------------
----------------------------------------------------------------

OptimusPrime

Submitted by OptimusPrime at Sun 01 Dec, 2002 9:47 am

Author: ?
Composer: ?
Publisher: ?

Reactions

CommonCrawl [Bot]

Follow Muzikum